Cifra da música: The Last Remaining Light - Audioslave

Esse cifra de Audioslave já foi acessado por 356 pessoas.

Comente

A música The Last Remaining Light fez muito sucesso quando foi gravada por Audioslave. Quer conhecer a letra dela? Veja a letra de The Last Remaining Light e cante.

Veja também o vídeo da música tocada.


TUNING ( E A D G B E )


INTRO

|----------------------------------------------------|
|---6-----5-----8-----5-----6-----5-----8-----5------|
|------7-----7-----7-----7-----7-----7-----7-----7---|
|----------------------------------------------------|
|----------------------------------------------------|
|----------------------------------------------------|  

VERSE 1

|----------------------------|
|---6-----8-----8-----6------|
|------7-----9-----9-----7---|
|----------------------------|
|----------------------------|
|----------------------------|  X3

|--------------------------|
|---6-----5-----8-----6~---|
|------7-----7-----7-------|
|--------------------------|
|--------------------------|
|--------------------------| 

|----------------------------|
|---6-----5-----8-----5------|
|------7-----7-----7-----8---|
|----------------------------|
|----------------------------|
|----------------------------| 

Roll me on your frozen fields
Break my bones to watch them heal
Drown me in your thirsty veins
Where I'll watch and I'll wait
And pray for the rain  

VERSE 2

|----------------------------|
|---6-----8-----8-----6------|
|------7-----9-----9-----7---|
|----------------------------|
|----------------------------|
|----------------------------|  x2

|--------------------------------------------------------|
|---6---6---6----8---8---8----8---8---8----6---6---6-----|
|-----7---7---7----9---9---9----9---9---9----7---7---7---|
|--------------------------------------------------------|
|--------------------------------------------------------|
|--------------------------------------------------------| 

|-----------------------------------------------|
|---6---6---6----5---5---5----8---8---8----6~---|
|-----7---7---7----7---7---7----7---7---7-------|
|-----------------------------------------------|
|-----------------------------------------------|
|-----------------------------------------------| 

Curl like smoke and breathe again
Down your throat, inside your ribs
Through your spine and every nerve
Where I'll watch and I'll wait
And yield to the hurt 

CHORUS

|---------0-------------3-------------7--------------7-------|
|-------1---1---------0---0---------7---7----------7---7-----|
|-----2-------2-----0-------0-----7-------7------7-------7---|
|---3-------------2-------------9----------------------------|
|---------------------------------------------10-------------|
|------------------------------------------------------------| x3

And if you don?t believe
The sun will rise
Stand alone and greet 
The coming night
In the last remaining light  

SOLO 1

|--------------------------------------------------------------|
|--------------------------------------------------------------|
|--------------------------------------------------------------|
|---12---14--15--14--15--14--10---10--12--14--15--17--15--14---|
|--------------------------------------------------------------|
|--------------------------------------------------------------|

|-------------------------------------------------------|
|-------------------------------------------------------|
|-------------------------------------------------------|
|---15--14--14---15--14--10---15--14--10--10---10/14~---|
|-------------------------------------------------------|
|-------------------------------------------------------|

VERSE 3 

|----------------------------|
|---6-----8-----8-----6------|
|------7-----9-----9-----7---|
|----------------------------|
|----------------------------|
|----------------------------|  x2

|--------------------------------------------------------|
|---6---6---6----8---8---8----8---8---8----6---6---6-----|
|-----7---7---7----9---9---9----9---9---9----7---7---7---|
|--------------------------------------------------------|
|--------------------------------------------------------|
|--------------------------------------------------------| 

|-----------------------------------------------|
|---6---6---6----5---5---5----8---8---8----6~---|
|-----7---7---7----7---7---7----7---7---7-------|
|-----------------------------------------------|
|-----------------------------------------------|
|-----------------------------------------------|

Seven moons and seven suns
Heaven wait for those who run
Down your winter and underneath your waves
Where you watch and you wait
And pray for the day  

CHORUS 2

|---------0-------------3-------------7--------------7-------|
|-------1---1---------0---0---------7---7----------7---7-----|
|-----2-------2-----0-------0-----7-------7------7-------7---|
|---3-------------2-------------9----------------------------|
|---------------------------------------------10-------------|
|------------------------------------------------------------| x3

|---------7-------7---|
|-------7---7---------|
|-----7-------7-------|
|---9-----------------|
|---------------------|
|---------------------|

And if you don?t believe
The sun will rise
Stand alone and greet 
The coming night
In the last remaining light

SOLO 2

|-----------------------------------------------------------------------------------------|
|-----------------------------------------------------------------------------------------|
|-------10----------------------------10------10------10--12--14--12~--14--12~--10--------|
|---12------12--10------10--12~---12------12------12-------------------------------12/0---|
|-------------------12--------------------------------------------------------------------|
|-----------------------------------------------------------------------------------------|

|---12-----------------------------------------------|
|-------13-------------------------------------------|
|-----------14----13--12--10--12---14--13--12--12----|
|----------------------------------------------------|
|----------------------------------------------------|
|----------------------------------------------------|

|-------------------------------------------------------------------------------|
|--------------------------------------------------------------------------15---|
|---14--13--12--10--9---9/10-------------------------------------------14-------|
|------------------------------10/12---10/7---5----------------12--15-----------|
|-------------------------------------------------5/0------12-------------------|
|------------------------------------------------------10-----------------------| 

CHORUS 3

|---------0-------------3-------------7--------------7-------|
|-------1---1---------0---0---------7---7----------7---7-----|
|-----2-------2-----0-------0-----7-------7------7-------7---|
|---3-------------2-------------9----------------------------|
|---------------------------------------------10-------------|
|------------------------------------------------------------| x3

And if you don?t believe
The sun will rise
Stand alone and greet 
The coming night
In the last remaining light

END

|---------7-------|
|-------7---7-----|
|-----7-------7---|
|---9-------------|
|-----------------|
|-----------------| x6

Light
Light
Light


 


Quer fazer uma correção nesta cifra?







    Comentários (0) Postar um Comentário

    Nenhum comentário encontrado. Seja o primeiro!