Cifra da música: Set It Off - Audioslave

Esse cifra de Audioslave já foi acessado por 373 pessoas.

Comente

A música Set It Off fez muito sucesso quando foi gravada por Audioslave. Quer conhecer a letra dela? Veja a letra de Set It Off e cante.

Veja também o vídeo da música tocada.


Intro
e|---------------------------------------------------------------------------------
B|---------------------------------------------------------------------------------
G|---------------------------------------------------------------------------------
D|----------4s7-7----------4s7-7---------4s7-7----------4-2----------4s7-7---------
A|---------------------------------------------------------------------------------
E|-0-2-0-2--------0-2-0-2--------0-2-0-2-------0-2-0-2-------0-2-0-2------0-2-0-2--

Intro Contd.
e|----------------------------------------------------------------------------
B|----------------------------------------------------------------------------
G|----------------------------------------------------------------------------
D|-4s7-7----------4s7-7----------4-2------------------------------------------
A|-----------------------------------0----------------------------------------
E|-------0-2-0-2--------0-2-0-2-----------------------------------------------

Verse
e|---------------------------------------------------------------------------------
B|---------------------------------------------------------------------------------
G|---------------------------------------------------------------------------------
D|-------X-X------------------------X-X------------------------X-X-----------------
A|-------X-X------------------------X-X------------------------X-X-----------------
E|-2-0-2-X-X-2-0-2-2-0-5-0-0--2-0-2-X-X-2-0-2-2-0-5-0-0--2-0-2-X-X-2-0-2-2-0-5-0-0-

Verse Contd.
e|----------------------------------------------------------------------------
B|----------------------------------------------------------------------------
G|----------------------------------------------------------------------------
D|-------X-X------------------------------------------------------------------
A|-------X-X------s7----------------------------------------------------------
E|-2-0-2-X-X-0-2------5-------------------------------------------------------

1st Chorus
e|----------------------------------------------------------------------------
B|----------------------------------------------------------------------------
G|------2-----------------2-----------------2---------------------------------
D|---s4---4-2---2-4----s4---4-2---2-4----s4---4-2---2-4----4--2---------------
A|------------4-----------------4-----------------4-------------0-------------
E|-2-----------------2-----------------2-----------------2--------------------

1st Chorus Contd.
e|----------------------------------------------------------------------------
B|----------------------------------------------------------------------------
G|------2-----------------2-----------------2---------------------------------
D|---s4---4-2---2-4----s4---4-2---2-4----s4---4-2---2-4----4--2---------------
A|------------4-----------------4-----------------4-------------0-------------
E|-2-----------------2----------------2------------------2--------------------

2nd Chorus
e|----------------------------------------------------------------------------
B|----------------------------------------------------------------------------
G|------2-----------------2-----------------2---------------------------------
D|---s4---4-2---2-4----s4---4-2---2-4----s4---4-2---2-4----4--2---------------
A|------------4-----------------4-----------------4-------------0-------------
E|-2-----------------2-----------------2-----------------2--------------------

2nd Chorus Contd.
e|----------------------------------------------------------------------------
B|----------------------------------------------------------------------------
G|------2-----------------2-----------------2---------------------------------
D|---s4---4-2---2-4----s4---4-2---2-4----s4---4-2---2-4----4--2---------------
A|------------4-----------------4-----------------4---------------------------
E|-2-----------------2-----------------2-----------------2--------------------

Interlude
e|---------------------------------------------------------------------------------
B|---------------------------------------------------------------------------------
G|---------------------------------------------------------------------------------
D|----------4s7-7----------4s7-7---------4s7-7----------4-2----------4s7-7---------
A|---------------------------------------------------------------------------------
E|-0-2-0-2--------0-2-0-2--------0-2-0-2-------0-2-0-2-------0-2-0-2------0-2-0-2--

Interlude Contd.                      
e|----------------------------------------------------------------------------
B|----------------------------------------------------------------------------
G|----------------------------------------------------------------------------
D|-4s7-7----------4s7-7----------4-2------------------------------------------
A|----------------------------------------------------------------------------
E|-------0-2-0-2--------0-2-0-2--------0-2-0-2--------------------------------

Breakdown (Everytime the wind blows....)
e|-X------------X------------X-----------X------------------------------------
B|-X------------X------------X-----------X------------------------------------
G|-X------------X------------X-----------X------------------------------------
D|-X------------X------------X-----------X------------------------------------
A|----------------------------------------------------------------------------
E|----------------------------------------------------------------------------

Clean Part (And all thats up inside your head....)
e|----------------------------------------------------------------------------
B|----------------------------------------------------------------------------
G|----------------------------------------------------------------------------
D|-5----5---7---4-------------------------------------------------------------
A|-5----5---7---4---2-2-2-2-2-2-2-2-------------------------------------------
E|-3----3---5---2---0-0-0-0-0-0-0-0---0~---------------------s12--------------
PM                  . . . . . . . .   ^Whammy bar vibrato    ^^Do not hit the note


Song Structure:
Intro(x1)
Verse(x2)
1st Chorus(x1)
Verse(x2)
2nd Chorus(x1)
Interlude(x1)
Breakdown(x1)
Clean Part(x1)
2nd Chorus(x1)
Intro(x1)





Quer fazer uma correção nesta cifra?







    Comentários (0) Postar um Comentário

    Nenhum comentário encontrado. Seja o primeiro!