Cifra da música: Like a Stone - Audioslave

Esse cifra de Audioslave já foi acessado por 1215 pessoas.

Comente

A música Like a Stone fez muito sucesso quando foi gravada por Audioslave. Quer conhecer a letra dela? Veja a letra de Like a Stone e cante.

Veja também o vídeo da música tocada.


Intro e Versos
(Esta frase é feita usando um efeito de Tremolo ajustado para o tempo de Semi-Colcheia)
e|---------|----------|---------|----------------|
B|---------|----------|---------|----------------|
G|---------|----------|---------|----------------|repete em todos os versos.
D|--8------|--10------|---------|--------13-12---|
A|----10---|------8---|------12-|----------------|
E|---------|----------|--10-----|--11------------|


  |      Gm      F            D7  
V | On a cobweb, afternoon in a room
  |         D#
E | full of emptiness
  |        Gm    F
R | By a freeway I confess
  |    D7              D# 
S | I was lost in the pages
  | Gm         F
E | Of a book, full of death
  | D7                 D#
  | Reading how we'll die alone
1 |     Gm                   F
  | And if we're good we'll lay to rest
  | D7           D#
  | Anywhere we want to go

  Chorus
 D|------------
 A|-3--8--3--5-    (2x) part.1
 E|-5--6--1--3-  
 
 D|-8-----------8--5--5--      
 A|-6--3--1--3--6--7--7--     part.2 
 E|----5--3--5----------- 
     
  (Gm A# F Gm)part.1
  In your house I long to be
  Room by room patiently
  (D# Gm F Gm)part.2
  I'll wait for you there
  Like a stone
  I'll wait for you there
  Alone   Alone 

  |        Gm       F
V | On my deathbed, I will pray 
  |    D7               D#
E | To the gods and the angels
  |         Gm      F  
R | Like a pagan to anyone
  | D7                   D#
S | Who will take me to heaven
  |       Gm    F
E | To a place, I recall
  | D7              D#
  | I was there so long ago
2 |     Gm        
  | The sky was bruised
  |     F
  | The wine was bled
  |     D7               D# 
  | And there you led me on


  Repete o chorus


SOLO (O solo é feito usando um Delay e um pedal de Whammy mas pode ser feito com um oitavador ajustado para uma oitava acima)

    Gm     A#    F           Gm    Gm      A#   F       Gm
e|-----------------------------------------------------------------------
B|--8--10--11~---13--11--10--8~----8---10--6----11--13--15--15~----------
G|-----------------------------------------------------------------------  I
D|-----------------------------------------------------------------------
A|-----------------------------------------------------------------------
E|-----------------------------------------------------------------------

    D#                              Gm
e|--18(3x)--17(3x)------------------18(3x)--17(3x)-------------------
B|-----------------18(3x)--15(3x)-------------------18(3x)--15(3x)---
G|-------------------------------------------------------------------  II
D|-------------------------------------------------------------------
A|-------------------------------------------------------------------
E|-------------------------------------------------------------------
 
    F                               Gm   
e|--18(3x)--17(3x)------------------18(3x)--17(3x)-------------------
B|-----------------18(3x)--15(3x)-------------------18(3x)--15(3x)---
G|-------------------------------------------------------------------  III
D|-------------------------------------------------------------------
A|-------------------------------------------------------------------
E|-------------------------------------------------------------------

    D#               Gm              D7
e|--------------------------------------------------------------------
B|--------------------------------------------------------------------
G|----2-3-5-8-10-12-14-15-14-15--14~----------------------------------  IV
D|-5------------------------------------------------------------------
A|----0-1-3-6--8-10-12-13-12-13--12~----------------------------------
E|-3------------------------------------------------------------------

  bridge: som acústico

  |D#             A#
B |And on I read
  |F                 Gm  
R |Until the day was gone
  |      D#m          A#
I |And I sat in regret
  |   F                  Gm
D |Of all the things I've done
  |    D#              A#
G |For all that I've blessed
  |    F              Gm   
E |And all that I've wronged
  |    D#m             A#
  |In dreams until my death
  |        D        D
  |I will wander on

  Faça o "D" com a pestana que fica melhor


  Repete o chorus


______________________________________________________
Contribuição: jefferson millen([email protected])
Correção: Mauricio Moura ([email protected])
Correção: Hun73R_HoPs ([email protected])
Correção: Jaime Urtado ([email protected])
Correção: Talita Rocha ([email protected])
Correção: Gustavo Affonso ([email protected]) 
Correção: Artur Fernando da Rocha Monteiro Júnior ([email protected])
Correção: Walter Maia Dutra ([email protected])
Correção: Mauricio Moura ([email protected])
Correção: Fellipe Shen ([email protected])
Correção: Felipe Sander ([email protected])
Correção: Guilherme de Oliveira Cezario ([email protected])
Correção: Fernando Maluf ([email protected]) 
Correção: Ricardo Dahmer ([email protected])
Correção: Paulo Roberto Gallo ([email protected])
Correção: Paulo Uranga ([email protected])
Correção: Marcos Paulo dos Santos ([email protected])
Correção: Rafael Romani ([email protected])
Correção: Portinario (portin[email protected])
Correção: Hiro ([email protected])


Quer fazer uma correção nesta cifra?







    Comentários (0) Postar um Comentário

    Nenhum comentário encontrado. Seja o primeiro!