Cifra da música: I Am The Highway - Audioslave

Esse cifra de Audioslave já foi acessado por 1064 pessoas.

Comente

A música I Am The Highway fez muito sucesso quando foi gravada por Audioslave. Quer conhecer a letra dela? Veja a letra de I Am The Highway e cante.

Veja também o vídeo da música tocada.


Versão 1
-======-


Na versão ao vivo, o solo fica mais claro, portanto recomendo que a escutem. =P

Intro: A9

F           C        G     Am
Pearls and swine bereft of me
F         C        G        Am
Long and weary my road has been 
       F           C Am
I was lost in the cities 
  G           C Am
Alone in the hills 
    F         C Am
No sorrow or pity 
     G         C Am
For leaving I feel

ponte:
|------|
|------|
|-2----|
|--2---|
|---0--|
|----0-|


C        G              Dm
  I am not your rolling wheels 
            Am     A9  Am
  I am the highway 

ponte

C        G             Dm
  I am not your carpet ride 
            E
  I am the sky

Intro

F            C           G       Am
Friends and liars don't wait for me 
      F        C      G     Am
Cause i'll get on all by myself 
      F           C Am
I put millions of miles 
    G    C Am  
Under my heels 
    F          C Am
And still too close 
    G     C Am
To you I feel 

ponte

C        G              Dm
  I am not your rolling wheels 
            Am     A9  Am
  I am the highway 

ponte

C        G             Dm
  I am not your carpet ride 
            Am
  I am the sky

ponte
C        G              Dm
  I am not your blowing wind
            Am     A9  Am
  I am the lightning 

ponte

C        G             Dm
  I am not your autumn moon
            E
  I am the night... night... 
Solo:

   F              C                G              Am
e|-------------------------------|-----------------------------------
B|----------------5-8-5----------|-----------------------------------
G|---5---5----5-7-------7--5-----|---5----5---5-7-5-4----------------
D|-7---7----7----------------7-5-|-7----7---7---------5-7-------5-7--
A|-------------------------------|--------------------------5h7------
E|-------------------------------|-----------------------------------

   F              C                G              Am
e|-------------------------------|----------------------------------
B|----------------5-8-5----------|--------------------8---8---8---8-
G|---5----5---5-7-------7--5-----|---5----5---5-7-------9-------9---
D|-7----7---7----------------7-5-|-7----7---7-------7-------7-------
A|-------------------------------|----------------------------------
E|-------------------------------|----------------------------------
                    x                               xxxxxxxxxxxxxxxx

   F                C       Am     G                C        Am
e|-------8-----------------------|-------8----------------------------8--
B|-10-10---10-10-8--5-8-8-5------|-10-10---10-10-8--5-8-8-10-10~~--10----
G|--------------------------7--5-|---------------------------------------
D|-------------------------------|---------------------------------------
A|-------------------------------|---------------------------------------
E|-------------------------------|---------------------------------------

   F                    C                        G                       Am
e|-12-12-10-10-8-8-7-7-------------------------------------------------------
B|----------------------15-15-13-13-12-12-10-10--------------------------10~~
G|-----------------------------------------------17-17-16-16-14-14-12-12-----
D|---------------------------------------------------------------------------
A|---------------------------------------------------------------------------
E|---------------------------------------------------------------------------

ponte

C        G              Dm
  I am not your rolling wheels 
            Am     A9  Am
  I am the highway 

ponte

C        G             Dm
  I am not your carpet ride 
            Am
  I am the sky

ponte

C        G              Dm
  I am not your blowing wind
            Am     A9  Am
  I am the lightning 

ponte

C        G             Dm
  I am not your autumn moon
            E
  I am the night... night...

Intro




 





Versão 2
-======-

Intro.: Am A9 Am7

C Dm/B      C      G       Am                                      
Pearls and swine bereft of me
C Dm/B    C        G        Am                    
Long and Weary my road has been
       C   C9 C Em Am
I was lost in the cities
  G           C Am  
Alone in the hills
    C C9 C   Em Am          G        C Am       
No sorrow or pity    for leaving,  I feel           (Chorus)
C    G                 Dm
I Am not your rolling wheels
          Am
I am the highway
C    G                Dm
I Am not your carpet ride
         Em  
I Am the sky
C  Dm/B      C           G        Am
Friends and liars don't wait for me
C    Dm/B      C          G    Am   
I'll           get on all by myself
      C C9 C      Em Am
I put millions of miles
  G      C Am
Under my heels                          (Chorus)
C    G      
I Am not your rolling...
C    G                 Dm
I Am not your blowing wind
          Am
I Am the lightining
C    G                Dm
I Am not your autumn moon
         Em     Em7
I Am the night


SOLO:
E|----------3------------------------------------------3----- ---- ------0--3--5--8--5------------------
B|-1--3--5---5--3--1---1---3--1---0--1---1--3--5---5--3--1-------1----------------------8-5-------------
G|-------------------2---2------2------2--------------------2--0---2-----------------------7-5----------
A|----------------------------------------------------------------------------------------------7-------
E|------------------------------------------------------------------------------------------------------
E|------------------------------------------------------------------------------------------------------

--5---8---5----------------------------10----8-----------12--10--8--------------------7-----------------
-------------8---5---8--10---8---10-----------12--10----------------12---8-------8----------------------
-----------------------------------------------------------------------------9--------------------------
--------------------------------------------------------------------------------------------------------
--------------------------------------------------------------------------------------------------------
--------------------------------------------------------------------------------------------------------


______




Quer fazer uma correção nesta cifra?







    Comentários (0) Postar um Comentário

    Nenhum comentário encontrado. Seja o primeiro!