Cifra da música: Like a stone (versão 2) - Audioslave

Esse cifra de Audioslave já foi acessado por 515 pessoas.

Comente

A música Like a stone (versão 2) fez muito sucesso quando foi gravada por Audioslave. Quer conhecer as demais músicas? Conheça as letras das músicas gravadas por Audioslave e aproveite.

Veja também o vídeo da música tocada.


Riff 1 :
(Intro e verse)

e|-------------------------------------------------
B|-------------------------------------------------
G|-------------------------------------------------
D|---------------------------------13~---12~-------
A|--13~-----15~-----------12~----------------------
E|-----15~------13~---10~-----11~----11~-----------



-INTRO:  Riff 1   2x


-VERSE 1:

riff 1(é tocado repetidamente até acabar o verse 1...)

On a cobweb, afternoon in a room          |
full of emptiness                         |V
By a freeway I confess                    | E
I was lost in the pages                   |  R
Of a book, full of death                  |   S
Reading how we'll die alone               |    E
And if we're good we'll lay to rest       |     1
Anywhere we want to go                    |      


-REFRÃO:   

Gm      A#      F       Gm                |
In your house I long to be                |
Gm      A#   F       Gm                   |R
Room by room patiently                    | E
     D#           Gm                      |  F
I'll wait for you there                   |   R 
F       Gm                                |    Ã
Like a stone                              |     O
     D#           Gm                      |
I'll wait for you there                   |
 D       D                                |
Alone                                     |

 
-Riff 1   1x


-VERSE 2

Riff 1  (é tocado repetidamente até acabar o verse 2...)

On my deathbed, I will pray               |
To the gods and the angels                | V
Like a pagan to anyone                    |  E
Who will take me to heaven                |   R
To a place, I recall                      |    S
I was there so long ago                   |     E
The sky was bruised                       |      2
The wine was bled                         |
And there you led me on                   |


-REFRÃO:   

Gm      A#      F       Gm                |
In your house I long to be                |
Gm      A#   F       Gm                   |
Room by room patiently                    |R 
     D#           Gm                      | E 
I'll wait for you there                   |  F  
F       Gm                                |   R 
Like a stone                              |    Ã 
     D#           Gm                      |     O
I'll wait for you there                   |
 D       D                                |
Alone                                     |


SOLO (se vc for tocar com pedaleira)
Esse solo é tocado com alguns efeitos...Eu uso o 'autoya' com 'wah-wah'...
Fica praticamente igual...
Cada nota q vc for tocar pise e volte com o 'wah-wah' até o final...

e|-----------------------------------------------------------------------
B|--8~--10--11~---13--11--10--8~----8~---10~--6~-----11--13---15-15~-----
G|-----------------------------------------------------------------------  
D|-----------------------------------------------------------------------
A|-----------------------------------------------------------------------
E|-----------------------------------------------------------------------

  
e|--18-17------------18-17----------18-17----------18-17-------------
B|---------18-15------------18-15----------18-15----------18-15------
G|------------------------------------------------------------------- 
D|-------------------------------------------------------------------
A|-------------------------------------------------------------------
E|-------------------------------------------------------------------
 

e|------------------------------------------------------------------------
B|------------------------------------------------------------------------
G|-------------------------12-14-15-14-15-14~~~---------------------------
D|-----------10-12-13--15-------------------------------------------------
A|--10-12-13--------------------------------------------------------------
E|------------------------------------------------------------------------

SOLO (se vc for tocar sem pedaleira)
Fica um pouco mais complicado, mas é só acostumar q ele fica facil...
Se vc quiser pode tirar as '/' ,porém o solo não vai ficar tão parecido...


e|----------------------------------------------------------------------------------
B|--/8~--/10--/11~---/13--/11--/10--/8~----/8~---/10~--/6~----/11--/13--/15-/15~~--
G|----------------------------------------------------------------------------------
D|----------------------------------------------------------------------------------
A|----------------------------------------------------------------------------------
E|----------------------------------------------------------------------------------

    
e|--18(3x)--17(3x)------------------18(3x)--17(3x)-------------------
B|-----------------18(3x)--15(3x)-------------------18(3x)--15(3x)---
G|------------------------------------------------------------------- 
D|-------------------------------------------------------------------
A|-------------------------------------------------------------------
E|-------------------------------------------------------------------
 
       
e|--18(3x)--17(3x)------------------18(3x)--17(3x)-------------------
B|-----------------18(3x)--15(3x)-------------------18(3x)--15(3x)---
G|-------------------------------------------------------------------  
D|-------------------------------------------------------------------
A|-------------------------------------------------------------------
E|-------------------------------------------------------------------

 
e|---------------------------------/15--/17-/18--/17--/18--/17~~~-----
B|---------------/13--/15--/16--/18-----------------------------------
G|--/12--/14--/15-----------------------------------------------------  
D|--------------------------------------------------------------------
A|--------------------------------------------------------------------
E|--------------------------------------------------------------------


-BRIDGE:
 
    D#   A#                               |
And on I read                             | 
  D               D#                      |
Until the day was gone                    |
      D#m     C                           |B
And I sat in regret                       |  R
    D               D#                    |    I
Of all the things I've done               |      D
    D#            A#                      |        G
For all that I've blessed                 |          E
    D               D#                    |
And all that I've wronged                 |
   D#m             C                      |
In dreams until my death                  |
        D     D                           |
I will wander on                          |


-REFRÃO:   

Gm      A#      F       Gm                |
In your house I long to be                |
Gm      A#   F       Gm                   |
Room by room patiently                    |R 
     D#           Gm                      | E 
I'll wait for you there                   |  F  
F       Gm                                |   R 
Like a stone                              |    Ã 
     D#           Gm                      |     O
I'll wait for you there                   |
 D       D                                |
Alone    alone                            |






Quer fazer uma correção nesta cifra?







    Comentários (0) Postar um Comentário

    Nenhum comentário encontrado. Seja o primeiro!