Cifra da música: Show Me How To Live - Audioslave

Esse cifra de Audioslave já foi acessado por 751 pessoas.

Comente

A música Show Me How To Live fez muito sucesso quando foi gravada por Audioslave. Quer conhecer a letra dela? Veja a letra de Show Me How To Live e cante.

Veja também o vídeo da música tocada.


legenda:

 ^ = ligadura
 / = slide
 
 
Intro
e|--------------
B|--------------
G|-7------------      4 vezes
D|-7----2-------
A|-5----2------- 
E|------0-------

Riff 1
e|-----------------------------------------
B|-----------------------------------------
G|-----------------------------------------
D|-----------------------------------------        /
A|----5^7----------------------------------       /
E|-5^7----57-57--7^6^5^0---0-3~0-0-4~0-----      /
						<  2 vezes
e|-----------------------------------------      
B|-----------------------------------------       
G|-----------------------------------------        
D|----------------------------------------- 
A|----5^7----------------------------------   
E|-5^7----57-57----------------------------   


Riff 1 4 vezes (abafado)

Refrão 
e|--------------------------
B|--------------------------
G|--------------------------    8 vezes
D|--------------------------
A|---------------5^7--------
E|-0---3---5-5^7------------

Riff 1 2 vezes (abafado)   
  
Refrão 8 vezes

Riff 2
e|-----------------------------
B|-----------------------------
G|--9999999999999999999999999--   inumeras vezes
D|-----------------------------
A|-----------------------------
E|-----------------------------

Intro 8 vezes

Refrão 8 vezes

Finalização
e|----------------------------
B|----------------------------
G|----------------------------
D|----------------------------  8 vezes
A|----------------------------
E|-0--------------------------

e|----------------------------
B|----------------------------
G|----------------------------  1 vez e lentamente
D|----------------------------  
A|----------------------------
E|--0/22----------------------






Quer fazer uma correção nesta cifra?







    Comentários (0) Postar um Comentário

    Nenhum comentário encontrado. Seja o primeiro!