Cifra da música: Gasoline - Audioslave

Esse cifra de Audioslave já foi acessado por 465 pessoas.

Comente

A música Gasoline fez muito sucesso quando foi gravada por Audioslave. Quer conhecer a letra dela? Veja a letra de Gasoline e cante.

Veja também o vídeo da música tocada.


INTRO (Slight Distortion)
       |------------Repeat-3x------------|
E -----|---------------------------------|---------------------------------|
B -----|---------------------------------|---------------------------------|
G -----|---------------------------------|---------------------------------|
D -----|---------------------------------|---------------------------------|
A -----|-----------------0h2-----2-------|-------------2---~-------~-------|
B -12/-|-0-----0-3h5---0-----------------|-5-5-3-5-3-0-0---~-------~-------|
         1 e + a 2 e + a 3 e + a 4 e + a | 1 e + a 2 e + a 3 e + a 4 e + a |

(Distortion)                       |------------Repeat-1x------------|
E ---------------------------------|---------------------------------|
B ---------------------------------|---------------------------------|
G ---------------------------------|---------------------------------|
D ---------------------------------|---------------------------------|
A -----------------0h2-----2-------|-2---------------0h2-----2-------|
B -0-----0-3h5---0-----------------|---0---0-3h5---0-----------------|
   1 e + a 2 e + a 3 e + a 4 e + a | 1 e + a 2 e + a 3 e + a 4 e + a |

E -------------------------|
B -------------------------|
G -------------------------|
D -------------------------|
A -------2-~---~---~---~---|
B -5535300-~---~---~---~---|
   1e+a2e+a3e+a4e+a5e+a6e+a|

PREVERSE (Tremolo Pedal set to 16th note rate)
E -----------------|-----------------|-----------------|-----------------|
B -----------------|---------5>>>4>>>|-----------------|---------5>>>4>>>|
G -----------------|-----------------|-----------------|-----------------|
D -4>>>>>>>>>>>>>>>|-4>>>>>>>--------|-4>>>>>>>>>>>>>>>|-4>>>>>>>--------|
A -2>>>>>>>>>>>>>>>|-2>>>>>>>--------|-2>>>>>>>>>>>>>>>|-2>>>>>>>--------|
B -----------------|-----------------|-----------------|-----------------|
   1e+a2e+a3e+a4e+a| 1e+a2e+a3e+a4e+a| 1e+a2e+a3e+a4e+a| 1e+a2e+a3e+a4e+a|

VERSE (Tremolo Pedal set to 16th note repeat rate)
E -----------------|-----------------|-----------------|-----------------|
B -----------------|---------5>>>4>>>|-----------------|---------5>>>4>>>|
G -----------------|-----------------|-----------------|-----------------|
D -4>>>>>>>>>>>>>>>|-4>>>>>>>--------|-4>>>>>>>>>>>>>>>|-4>>>>>>>--------|
A -2>>>>>>>>>>>>>>>|-2>>>>>>>--------|-2>>>>>>>>>>>>>>>|-2>>>>>>>--------|
B -----------------|-----------------|-----------------|-----------------|
   1e+a2e+a3e+a4e+a| 1e+a2e+a3e+a4e+a| 1e+a2e+a3e+a4e+a| 1e+a2e+a3e+a4e+a|

E -----------------|-----------------|-----------------|-----------------|
B -----------------|---------5>>>4>>>|-----------------|---------5>>>4>>>|
G -----------------|-----------------|-----------------|-----------------|
D -2>>>>>>>>>>>>>>>|-2>>>>>>>--------|-4>>>>>>>>>>>>>>>|-4>>>>>>>--------|
A -0>>>>>>>>>>>>>>>|-0>>>>>>>--------|-2>>>>>>>>>>>>>>>|-2>>>>>>>--------|
B -----------------|-----------------|-----------------|-----------------|
   1e+a2e+a3e+a4e+a| 1e+a2e+a3e+a4e+a| 1e+a2e+a3e+a4e+a| 1e+a2e+a3e+a4e+a|

E -----------------|-----------------|-----------------|-----------------|
B -----------------|---------5>>>4>>>|-----------------|---------5>>>4>>>|
G -----------------|-----------------|-----------------|-----------------|
D -4>>>>>>>>>>>>>>>|-4>>>>>>>--------|-4>>>>>>>>>>>>>>>|-4>>>>>>>--------|
A -2>>>>>>>>>>>>>>>|-2>>>>>>>--------|-2>>>>>>>>>>>>>>>|-2>>>>>>>--------|
B -----------------|-----------------|-----------------|-----------------|
   1e+a2e+a3e+a4e+a| 1e+a2e+a3e+a4e+a| 1e+a2e+a3e+a4e+a| 1e+a2e+a3e+a4e+a|

E -----------------|-----------------|-----------------|-----------------|
B -----------------|---------5>>>4>>>|-----------------|---------5>>>4>>>|
G -----------------|-----------------|-----------------|-----------------|
D -2>>>>>>>>>>>>>>>|-2>>>>>>>--------|-4>>>>>>>>>>>>>>>|-4>>>>>>>>>>>>>>>|
A -0>>>>>>>>>>>>>>>|-0>>>>>>>--------|-2>>>>>>>>>>>>>>>|-2>>>>>>>>>>>>>>>|
B -----------------|-----------------|-----------------|-----------------|
   1e+a2e+a3e+a4e+a| 1e+a2e+a3e+a4e+a| 1e+a2e+a3e+a4e+a| 1e+a2e+a3e+a4e+a|


FIRST CHORUS (Distortion)          |------------Repeat-2x------------|
E ---------------------------------|---------------------------------|
B ---------------------------------|---------------------------------|
G ---------------------------------|---------------------------------|
D ---------------------------------|---------------------------------|
A -----------------0h2-----2-------|-2---------------0h2-----2-------|
B -0-----0-3h5---0-----------------|---0---0-3h5---0-----------------|
   1 e + a 2 e + a 3 e + a 4 e + a | 1 e + a 2 e + a 3 e + a 4 e + a |

 |------------Repeat-2x------------|
E ---------------------------------|
B ---------------------------------|
G ---------------------------------|
D -----------------2-0-------------|
A ---------------------2-0-----0h2-|
B -0-----0-3h5---0-----------------|
   1 e + a 2 e + a 3 e + a 4 e + a |

E -------------------------|
B -------------------------|
G -------------------------|
D -------------------------|
A --------2~---~---~---~---|
B -5535300-~---~---~---~---|
   1e+a2e+a3e+a4e+a5e+a6e+a|

Repeat VERSE

SECOND CHORUS (Distortion)         |------------Repeat-2x------------|
E ---------------------------------|---------------------------------|
B ---------------------------------|---------------------------------|
G ---------------------------------|---------------------------------|
D ---------------------------------|---------------------------------|
A -----------------0h2-----2-------|-2---------------0h2-----2-------|
B -0-----0-3h5---0-----------------|---0---0-3h5---0-----------------|
   1 e + a 2 e + a 3 e + a 4 e + a | 1 e + a 2 e + a 3 e + a 4 e + a |

 |------------Repeat-2x------------|
E ---------------------------------|---------------------|
B ---------------------------------|---------------------|
G ---------------------------------|---------------------|
D -----------------2-0-------------|---------------------|
A ---------------------2-0-----0h2-|-2-0-------------~---|
B -0-----0-3h5---0-----------------|-----7-5-3-3-0---~---|
   1 e + a 2 e + a 3 e + a 4 e + a | 1 + 2 + 3 + 4 + 5 + |

PRESOLO (Slight Distortion)
 |------------Repeat-6x------------|
E ---------------------------------|---------------------------------|
B ---------------------------------|---------------------------------|
G -----------------2h4-----4-------|-2h4-----4-------2h4-----4-------|
D ---------0h2---------------------|---------------------------------|
A -2-----2-------2---------------2-|---------------2-----------------|
B ---------------------------------|---------------------------------|
   1 e + a 2 e + a 3 e + a 4 e + a | 1 e + a 2 e + a 3 e + a 4 e + a |

SOLO (Wah and Whammy set to harmonize an Octave down)
 |-----------Repeat-2x-------------|
E ---------------------------------|
B ---------------------------------|
G -----------7---------------------|
D -9-7-9-7-9----9--~---~---9-7-9-7-|
A ---------------------------------|
B ---------------------------------|
   1 e + a 2 e + a 3 e + a 4 e + a |

E ---------------------------------|
B ---------------------------------|
G -9b--9-7-9b--9-7-9b--9-7-9b--9-7-|
D ---------------------------------|
A ---------------------------------|
B ---------------------------------|
   1 e + a 2 e + a 3 e + a 4 e + a |

BRIDGE (Slight Distortion)
 |-----------Repeat-11x------------|
E ---------------------------------|
B ---------------------------------|
G -9b--9-7-9b--9-7-9b--9-7-9b--9-7-|
D ---------------------------------|
A ---------------------------------|
B ---------------------------------|
   1 e + a 2 e + a 3 e + a 4 e + a |

Repeat SECOND CHORUS

OUTRO (Distortion)
E ---------------------------------|---------------------|
B ---------------------------------|---------------------|
G ---------------------------------|---------------------|
D ---------------------------------|---------------------|
A -----------------0h2-----2-------|-2-0-------------~---|
B -0-----0-3h5---0-----------------|-----7-5-3-3-0---~---|
   1 e + a 2 e + a 3 e + a 4 e + a | 1 + 2 + 3 + 4 + 5 + |

E ---------------------------------|-----------------|-----------------|
B ---------------------------------|-----------------|-----------------|
G ---------------------------------|-----------------|-----------------|
D ---------------------------------|-----------------|-~---~---~---~---|
A -----------------0h2-----2-------|-2-0-------------|-~---~---~---~---|
B -0-----0-3h5---0-----------------|-----7-5-3-3-0---|-~---~---~---~---|
   1 e + a 2 e + a 3 e + a 4 e + a | 1 + 2 + 3 + 4 + | 1 + 2 + 3 + 4 + |


/ = Slide Down
b = Bend up
~ = Let Ring
> = Note produced by Tremolo Pedal





Quer fazer uma correção nesta cifra?








    Comentários (0) Postar um Comentário

    Nenhum comentário encontrado. Seja o primeiro!