Cifra da música: Bring Em Back Alive - Audioslave

Esse cifra de Audioslave já foi acessado por 350 pessoas.

Comente

A música Bring Em Back Alive fez muito sucesso quando foi gravada por Audioslave. Quer conhecer a letra dela? Veja a letra de Bring Em Back Alive e cante.

Veja também o vídeo da música tocada.


INTRO:
E----------0----0------0------0------0------
B---13/12----12-----12-----12-----12-----12-
G-------------------------------------------

E----------0----0------0------0------0------
B---12/10----10-----10-----10-----10-----10-
G-------------------------------------------

E---------0---0-----0-----0-----0-----
B---10/8----8-----8-----8-----8-----8-
G-------------------------------------

E--------0---0-----0-----0-----0-----
B---8/7----7-----7-----7-----7-----7-
G------------------------------------

Play INTRO once with drums, bass and vocals, then once alone before changing to:

E--------0---0-----0-----0-----0-----|%|%|%|
B---7/5----5-----5-----5-----5-----5-|%|%|%|
G------------------------------------|%|%|%|

MAIN RIFF/CHORUS:
D-----------------------------------
A-----------------------------------
B---0-12-0-9h10-0---5h6-0h5---0h3---

D-----------------------------------
A-----------------------------------
B---3-10-0-9h10-0---5h6-0h5---3h5---

For INTRO, play MAIN RIFF/CHORUS four times.

VERSE:
D--------------------------------------
A-----------1-------0-------------10---
B---5-3---x---5---x---5---x-x-x-8------

VERSE with no lyrics x4
VERSE with lyrics until; ‘Where no one would be around’

MAIN RIFF/CHORUS x4

VERSE x2 with no lyrics
VERSE with lyrics until; ‘Where no one would hear the crys’

MAIN RIFF/CHORUS x4

SOLO:
E---------------------------------|%|%|
B---------------------------------|%|%|
G-17b-17b-15b-15b-12b-12b-14b-14b-|%|%|

E------------------------
B------------------------
G-17b-17b-15b-15b-8bbb---

E-------------------------------------------------
B-15-15-15-15-15-15-15-15-15-15-15-15-15-15-17/16-
G-------------------------------------------------

E-------------------------------------------------
B-15-15-15-15-17/16-15-15-17/16-15-15-17/16-17/16-
G-------------------------------------------------

E-------15---------16---------17---------19/18-
B-15-15-15---15-15-16---15-15-17---15-15-19/18-
G----------------------------------------------

E-------15---------16---8bbbbb-
B-15-15-15---15-15-16---8bbbb--
G------------------------------

E-------------------------------------------------------|%|
B-15/17/15/12---15/17/15/12---15/17/15/12---12/14/16/14-|%|
G-------------------------------------------------------|%|

E-------------------------------------------------------
B-17-16-15---17-16-15---17-16-15---12-13-14---17-16-15--
G-------------------------------------------------------

E---------------------17---
B-12-13-14---17-16-15------
G--------------------------

INTERLUDE
D-------------(x7)---------------|%|%|%|
A---5---------(x7)---0(harmonic)-|%|%|%|
B-----7-x-x---(x7)-x-------------|%|%|%|

MAIN RIFF/CHORUS

OUTRO:
A-----------------------
B---3h5---3h5---3h5~/---




Quer fazer uma correção nesta cifra?








    Comentários (0) Postar um Comentário

    Nenhum comentário encontrado. Seja o primeiro!