Cifra da música: Ty Cobb - Soundgarden

Esse cifra de Soundgarden já foi acessado por 499 pessoas.

Comente

A música Ty Cobb fez muito sucesso quando foi gravada por Soundgarden. Quer conhecer a letra dela? Veja a letra de Ty Cobb e cante.

Veja também o vídeo da música tocada.


This song is really really fast and cool. The slides can be hard to do w/o
practice.

Verse and Intro:
E--------------------|------------------|-------------------|
B--------------------|------------------|-------------------|
G--8/999999999999999-|-9999999999999999-|-8/999999999999999-|
D--8/999999999999999-|-9999999999999999-|-8/999999999999999-|
A--6/777777777777777-|-7777777777777777-|-6/777777777777777-|
E--------------------|------------------|-------------------|
                                                                 
E--------------------------|---------------------------|
B--------------------------|---------------------------|
G--12-6/-/12-9/-/12-6-|--12-6/-/12-9/-/12-6--|
D--12-6/-/12-9/-/12-6-|--12-6/-/12-9/-/12-6--|
A--10-4/-/10-7/-/10-4-|--10-4/-/10-7/-/10-4--|
E--------------------------|---------------------------|


Chorus:
E------------------|------------------|------------------|
B------------------|------------------|------------------|
G-9-99999999999999-|-7-77777777777777-|------------------|
D-9-99999999999999-|-7-77777777777777-|-7-77777777777777-|
A-7-77777777777777-|-5-55555555555555-|-7-77777777777777-|
E------------------|------------------|-5-55555555555555-|

E------------------|
B------------------|
G------------------|
D------------------|
A-7-77777777777777-|
E-0-00000000000000-|

Fig.2
E-------------------|------------------|--------------------|
B-------------------|------------------|--------------------|
G--9-99999999999999-|-7-77777777777777-|--------------------|
D--9-99999999999999-|-7-77777777777777-|--7-77777777777777--|
A--7-77777777777777-|-5-55555555555555-|--7-77777777777777--|
E-------------------|------------------|--5-55555555555555--|
                               
E------------------------------|--------------------------------|
B------------------------------|--------------------------------|
G------------------------------|--------------------------------|
D------------------------------|--------------------------------|
A------------------------------|--------------------------------|
E-0-5-3h0-0-0-5h0-0-0-3-0--3p5-|-3p5-0-3-5h0-0-0--5h0-0-3-0-3p5-|


Riff A
E-------------------------------|-------------------------------|
B-------------------------------|-------------------------------|
G-------------------------------|-------------------------------|
D-------------------------------|-------------------------------|
A-------------------------------|-------------------------------|
E--0-5-3h0-0-0--5h0-0-3--0--3p5-|-0-3-5h0-0-0--5h0-0--3--0--3p5-|


Fig.3
E------------------------------|
B------------------------------|
G--------------------------/9--|
D--------------------------/9--|
A---10p12-10p12-9p10--7-7------|
E------------------------------|


Fig.4
E--------------------|----------|-------------------------|
B--------------------|----------|-------------------------|
G--9-999999-7-777777-|----------|-------------------------|
D--9-999999-7-777777-|-7-777777-|-------------------------|
A--7-777777-5-555555-|-7-777777-|-------------------------|
E--------------------|-5-555555-|-0-5-3h0-5h0-0-3--0--3p5-|

E-------------------------|   
B-------------------------|
G-------------------------|
D-------------------------|
A-------------------------|
E--0-3-5h0-0-0--3--0--3p5-|



Riff B
E-------------------------------|-------------------------------|
B-------------------------------|-------------------------------|
G-/9----------------------------|-/9----------------------------|
D-/9----------------------------|-/9----------------------------|
A-------------------------------|-------------------------------|
E--0-5-3h0-0-0--5h0-0-3--0--3p5-|--0-3-5h0-0-0--5h0-0--3-0--3p5-|


Fig 5
E--------------------------|---------------------------|
B--------------------------|---------------------------|
G--12-6/-/12-9/-/12-6-|--12-6/-/12-9/-/12-6--|
D--12-6/-/12-9/-/12-6-|--12-6/-/12-9/-/12-6--|
A--10-4/-/10-7/-/10-4-|--10-4/-/10-7/-/10-4--|
E--------------------------|---------------------------|

Play in this order:
Verse X3
Chorus X2
Verse X3
Fig 2 X2
Riff A X1
Fig 3 X6.5
Fig 4 X2
Fig 2 X2
Riff B X6
Rest for 7 bars.
Fig 5 X1
Verse X1 but end on last E5



Quer fazer uma correção nesta cifra?







    Comentários (0) Postar um Comentário

    Nenhum comentário encontrado. Seja o primeiro!