Cifra da música: Black Hole Sun - Soundgarden

Esse cifra de Soundgarden já foi acessado por 1855 pessoas.

Comente

A música Black Hole Sun fez muito sucesso quando foi gravada por Soundgarden. Quer conhecer a letra dela? Veja a letra de Black Hole Sun e cante.

Veja também o vídeo da música tocada.


*****************************
*Galera, não fui eu quem    * 
*montei esta tablatura, mas * 
*tenho uma revista que ela  * 
*esta assim mesmo! A        * 
*afinação é a Seguinte: Meio* 
 tom abaixo! Ou seja:       *
*cordas - 1º 2º 3º 4º 5º 6º *
*        eb Bb Gb Db Ab Eb  *
*****************************


 
Intro:
eb-----------------|-----------------|-----------------|-----------------|
Bb-----------------|-----------------|-----------------|-----------------|
Gb-------7---------|-------7---------|-------7---------|-------6---------|
Db-----7-----7-----|-----7-----------|-----5-----5-----|-----4-----------|
Ab---7---------7---|---7-------------|---5---------5---|---4-------------|
Eb-5-------------5-|-8---------------|-3-------------0-|-2-------------0-|
 
eb-----------------|-----------------|
Bb-----------------|-----------------|
Gb-------3---------|-------4---------|
Db-----3-----3-----|-----2-----------|
Ab---3---------3---|---5-------------|
Eb-1-------------3-|-0---------------|
 
First verse:
 
In my eyes, indisposed
in disguise as no one knows
hides the face, lies the snake
the sun in my disgrace
boiling heat, summer stench
'neath the black the sky looks dead
call my name through the cream
and I'll hear you, scream again
 
eb-------12--------|-------10--------|-------13--------|-------12--------|
Bb-----12----12--12|-----11----------|-----13----13--13|-----12----------|
Gb---12--------12--|---12------------|---10--------10--|---12------------|
Db-----------------|-----------------|-----------------|-----------------|
Ab-----------------|-----------------|-----------------|-----------------|
Eb-----------------|-----------------|-----------------|-----------------|
 
eb-------11--------|-------10--------|-----12-------10--|-----11----------|
Bb-----11----11--11|-----10----10--10|---12-------12----|---13------------|
Gb---12--------12--|---12--------12--|-12----12-10----10|-13--------------|
Db-----------------|-----------------|------------------|-----------------|
Ab-----------------|-----------------|------------------|-----------------|
Eb-----------------|-----------------|------------------|-----------------|
 
Black hole sun, won't you come
And wash away the rain
Black hole sun, won't you come
Won't you come
 
Won't you come
 
First Chorus:
eb-----------------|-----------------|-----------------|-----------------|
Bb-----------------|-----------------|-----------------|-------5---------|
Gb-------3---------|-------4---------|-----------------|-----5-----5---5-|
Db-----3-----3-----|-----2-----2-----|-----7-------5---|---5---------5---|
Ab---3---------3---|---5---------5---|---7---7---5---5-|-3---------------|
Eb-1-------------1-|-0-------------0-|-5-------3-------|-----------------|
 
eb-----------------|-----------------|-----------------|-----------------|
Bb-----------------|-----------------|-7------7^9^7----|-----------------|
Gb-------3---------|-------4---------|-7------7----7---|-9---------------|
Db-----3-----3-----|-----2-----2-----|-7------7------7-|-9---------------|
Ab---3---------3---|---5---------5---|-5------5--------|-7---------------|
Eb-1-------------1-|-0-------------0-|-----------------|-0---------------|
 
Second verse as the first:
 
stuttering, cold and damp
steal the warm wind tired friend
times are gone for honest men
and sometimes far too long for snakes
in my shoes a walking sleep
and my youth I pray to keep
heaven send hell away
no one sings like you anymore
 
 
Second and third chorus:
eb-----------------|-----------------|-----------------|-----------------|
Bb-----------------|-----------------|-----------------|-----------------|
Gb-------3---------|-------4---------|-----------------|-------9---------|
Db-----3-----3-----|-----2-----2-----|-----7-------5---|----10----10--10-|
Ab---3---------3---|---5---------5---|---7---7---5---5-|--10--------10---|
Eb-1-------------3-|-0-------------0-|-5-------3-------|-8---------------|
                                     ___________________________________
                                    |1.                                 |
eb-----------------|-----------------|-----------------|-----------------|
Bb-----------------|-----------------|-7------7^9^7----|-5------5^6^5----|
Gb-------3---------|-------4---------|-7------7----7---|-5------5-----5--|
Db-----3-----3-----|-----2-----2-----|-7-------------7-|-5---------------|
Ab---3---------3---|---5---------5---|-5---------------|-3---------------|
Eb-1-------------1-|-0-------------0-|-----------------|---------------0-|
 _____________________________________________________
|2.  repeat 3 times                                   |
eb-----------------|-----------------|-----------------|
Bb-7------7^9^7----|-5------5^6^5----|-9-----9^10^9----|
Gb-7------7----7---|-5------5----5---|-9-----9-----9---|
Db-7-------------7-|-5-------------5-|-9-------------9-|
Ab-5---------------|-3---------------|-7---------------|
Eb-----------------|-----------------|-0---------------|
 
Third verse as first (as far as it goes, that is !):
 
Hang my head, drown my fear
till you all just disappear
 
Rythem part under solo (9/8) and the outro of the song.
  1 & 2 & 3 & 4 & 5 & 6 & 7 & 8 & 9 & 

  6 vezes                             ||1 vez 
eb-------------------------------------||-------------
Bb-------------------------------------||-------------
Gb-------------------------------------||-------------
Db-------------------------------------||--5---7-7----
Ab--5--4--2--2/4--0--------------------||--5---7-7----
Eb-------------------4--3--------------||--3---5-7----

thats as far as my terminal goes.

--
TOTALMENTE REVISADO POR: Romenigue



Quer fazer uma correção nesta cifra?








    Comentários (0) Postar um Comentário

    Nenhum comentário encontrado. Seja o primeiro!