Cifra da música: Outshined - Soundgarden

Esse cifra de Soundgarden já foi acessado por 606 pessoas.

Comente

A música Outshined fez muito sucesso quando foi gravada por Soundgarden. Quer conhecer a letra dela? Veja a letra de Outshined e cante.

Veja também o vídeo da música tocada.


* - Afine a 6º corda em D(Ré)
^ - hammer on/pull off 
b - bend 
~ - vibrato 

Outshined

introd/versos:                           
e|--------------------------------   --------- 
B|--------------------------------   ---------última vez depois 
G|-------------------5------------   ------5b- que o verso começa 
D|-------------------5------------   --5b----- 
A|---0-0-0-3-5-3-0-3-3--6-5-3-5-3-   --------- 
D|---0-0-0-3-5-3-0-3----6-5-3-5-3-   --------- 

Pré-refrão: não está bem completo mas acho que “já dá para o gasto”. 
e|-----------------------------------------7/10-10-10----
B|---7-7--7----7-7--7--7--------------------------------- 
G|---7-7--7----7-7--7--7-------repete------4/7--7--7----- 
D|---7-7--5----x-x--x--x----o necessario---------------0- 
A|---5-5--5----9-9--7--5-------------------------------0- 
D|-----------------------------------------------------0-
 
Refrão: 
e|------------------------------------------------------------------- 
B|------------------------------------------------------------------- 
G|------------------------------------------------------------------- 
D|-7-5-3-0--0-3-5-3--0^3-6-6-6-5-3-0--10-0-0-10--10-10--0-10-10------
A|-7-5-3-0--0-3-5-3--0^3-6-6-6-5-3-0--10-0-0-10--10-10--0-10-10------ 
D|-7-5-3-0--0-3-5-3--0^3-6-6-6-5-3-0--10-0-0-10--10-10--0-10-10------

e|-------------------------------------------------
B|-------------------------------------------------
G|-------------------------------------------------
D|--10-10--------10-10---------10-10-------10-10---
A|--10-10--------10-10---------10-10-------10-10---
D|--10-10--------10-10---------10-10-------10-10---
   outshined     outshined    outshined   outshined 
  
solo: 
e|--------------------------------------------------------
B|--------------------------------------------------------
G|--5~------5-7--7-5-7-7-5------------------------------5-
D|--5~------5-7--7-5-7-7-5--5-4-5-7-5-4-----------5-5/7---
A|------7~------------------------------3-3/5-5/7---------
D|--------------------------------------------------------

e|--------------8-10---8b--5^8^5--------------------------
B|-------8-8/10------------------8^6^8--8b-8-6^8-6-6^8^6--
G|---7/9------------------------------------------------7-
D|--------------------------------------------------------
A|--------------------------------------------------------
D|--------------------------------------------------------

e|-------------------------------- nesta parte ele está cantando baixo.
B|-------6-8-6---------6-8-8b-6--- Repita qtas. vezes for preciso, nesta 
G|---7-7-------7---7-7------------ parte há várias pequenas mudanças 
D|-------------------------------- mas eu não consegui tirar. 
A|-------------------------------- 
D|--------------------------------

Antes do último refrão outro riff é feito: 
e|---------------------------------------------
B|---------------------------------------6-5-6-
G|----------------------5-7-7-5---5-4-5--5-5-5-
D|-5^7--5-4--5-4-7-5-4--5-5-5-5---5-5-5--------
A|-5----5-5--5-5-5-5-5-------------------------
D|---------------------------------------------

Letra:

 Outshined
(Chris Cornell)

I got up feeling so down
I got off being sold out
I've kept the movie rolling
But the story's getting old now
I just looked in the mirror
Things aren't looking so good
I'm looking California
And feeling Minnesota

So now you know, who gets mystified
Show me the power child, I'd like to say
That I'm down on my knees today
It gives me the butterflies, gives me away
Till I'm up on my feet again
I'm feeling outshined

Someone let the dogs out
They'll show you where the truth is
The grass is always greener
Where the dogs are shedding
I'm feeling that I'm sober
Even though I'm drinking
I can't get any lower
Still I feel I'm sinking

So now you know, who gets mystified
Show me the power child, I'd like to say
That I'm down on my knees today
It gives me the butterflies, gives me away
Till I'm up on my feet again
I'm feeling outshined




Quer fazer uma correção nesta cifra?








    Comentários (0) Postar um Comentário

    Nenhum comentário encontrado. Seja o primeiro!