Cifra da música: Get On The Snake - Soundgarden

Esse cifra de Soundgarden já foi acessado por 607 pessoas.

Comente

A música Get On The Snake fez muito sucesso quando foi gravada por Soundgarden. Quer conhecer a letra dela? Veja a letra de Get On The Snake e cante.

Veja também o vídeo da música tocada.


Tuning: Standard

Here's a really cool song. Most of its in 9/4 time though...so you can't
dance to it.

Intro: 
(1/4)   (4/4) Hoo!
G------||-----------------|----------------|-------------------|  
D-DRUM-||o----------------|----------------|-------------------|  
A-FILL-||o----------------|----------------|-------------------|  
E------||--3b--5-3-5-3-5--|-3b--5-3-5-3-5--|-3b--5-3-5-/8-7-5--|  
             
      Play 3 times
G-----------------||
D----------------o||                                     
A----------------o||
E-3b--5-3-5-3-5---||

Don't play the last bar the third time and hold the last note for 2 more beats.

Guit. 2 comes in the second time playing this with harmonics:
                                         Play 3 1/2 times
E||-------------------------|---------------------------||
B||-------------------------|-----7-7-7-----------------||     
G||o----7-7-7---------------|------------7-7-7---------o||      
D||o-----------7-7-7----7---|-------------------7---7--o||      
A||-------------------7---7-|---------------------7-----||       
E||-------------------------|---------------------------||     

Hold the last note there as well.

Verse: (9/4)                                     Play 4X
G||-----------------------------------------------------||   
D||o---------------------------------------------------o||        
A||o-7----5------------------5h7--5--------------------o||        
E||------------7--5--3--0--------------7--5--3--0-------||

Chorus: (9/4)
G---------------------------------------------------|            
D---------------------------------------------------|            
A-7----5------------------5h7--5--------------------|            
D-----------7--5--3--0--------------7--5--3--5------|

 (4/4)
G-------------------------|---------------------------|          
D-------------------------|---------------------------|          
A-5h7--5------------------|----------5-h-7------------|          
E-----------7--5--3--6----|-(6)-------------5--0------|          
            
Then play the 2 other verses like above but gtr. 2 plays these notes instead
of the 7 and 5 on the A string:

2nd Verse:     3rd Verse:
E------------|--------------|
B--9----7----|--5-----3-----|
G--9----7----|--7b----5b----|
D--9----7----|--------------|
A------------|--------------|
E------------|--------------|

Play this after the last chorus and during solo:
 
(4/4)                                              Play alot
G||-----------------------|--------------------------------||    
D||o----------------------|-------------------------------o||     
A||o-5--------------------|------5h7--5-------------------o||     
E||------0----7--5--3--0--|-(0)------------7--5--3--0------||      
Then play:
(4/4)
G------------|------------|------------|------------|            
D------------|------------|------------|------------|            
A--7--5------|-(5)--------|------------|------------|            
E------------|------------|--7--5------|-(5)--------|

                           (Bass starts playing the solo riff)
G------------|------------|------------|------------|
D------------|------------|------------|------------|             
A------------|------------|------------|------------|            
E--3--0------|-(0)--------|-(0)--------|-(0)--------|            
                            FEEDBACK^^^^^^^^^^^^^^^

Outro is:
(4/4)
G||---9--------|-/13--------|-9--------|-7--------| 
D||o-----------|------------|-----------|-----------| 
A||o--7--------|-/11--------|-7--------|-5--------| 
E||------------|------------|-----------|-----------|  

G|-/9----------|-/14--------|-13-------|-9--------||           
D|-------------|------------|-----------|----------o||           
A|-/7----------|-/12--------|-11-------|-7-------o||           
E|-------------|------------|-----------|-----------||

G||--99999999--|-/1313131313-|-1111111111-|-/1414141414--||
D||o-----------|-------------|-------------|-------------o||
A||o-77777777--|-/1111111111-|--9-9-9-9-9-|-/1212121212-o||
E||------------|-------------|-------------|--------------||

End with this:
 
E--0-----------------||
B--------------------||
G--9-----------------||
D--------------------||
A--7-----------------||
E--0-----------------||



I want the tab to 'No Wrong, No Right'




Quer fazer uma correção nesta cifra?








    Comentários (0) Postar um Comentário

    Nenhum comentário encontrado. Seja o primeiro!