Cifra da música: Loud Love - Soundgarden

Esse cifra de Soundgarden já foi acessado por 512 pessoas.

Comente

A música Loud Love fez muito sucesso quando foi gravada por Soundgarden. Quer conhecer a letra dela? Veja a letra de Loud Love e cante.

Veja também o vídeo da música tocada.


* Ae, galera, tá ai a tablatura de Loud Love do Soundgarden
* Ela não está tão completa, mas já é suficiente
* Escute a música p/ pegar um ou outro solo

Loud Love

Introdução:
e---------------------------------------------------------|
B---15--/17--/18--17--13--/17--/18--17--13--/17--/18--|
G---------------------------------------------------------|
D---------------------------------------------------------|
A---------------------------------------------------------|
E---------------------------------------------------------|

e---------------------------------------------------------|
B--17--13--/17--/18--17--13--/17--/18--17--15--(15)-|
G---------------------------------------------------------|
D---------------------------------------------------------|
A---------------------------------------------------------|
E---------------------------------------------------------|

Riff Principal:
e-------------------------------------|
B-------------------------------------|
G-------------------------------------|
D------7--------------------------5^--|
A----5-----5--7---4--7---5--7---7-----|
E--O-----O------O------O------O-------|

Pós-refrão
e-------------------------------------|
B-------------------------------------|
G-------------5-------------------7^--|
D--7----5--7--5--7---5---7--5--7--7^--|
A--7----5--7--3--7---5---7--5--7--5^--|
E--5----3--5-----5---3---5--3--5------|

LETRA:

 Loud Love
(Chris Cornell)

There's No Time To Keep It Low
I've been Deaf now I Want Noise
You Stay Down
But I Wont be Quiet
I'll Hammer On Until You Fight

Loud Love
Loud Love
Loud Love
Loud Love

If You've Got Some Time To Kill
Slow Resistance Wins The War
Well I Know
But That's No Way to Go
You Can't Resist The Louder Pull

You Can't Resist The Louder Pull
Well That's Right
I Want Something To Explode
I've Been Deaf
Now I want Noise





Quer fazer uma correção nesta cifra?








    Comentários (0) Postar um Comentário

    Nenhum comentário encontrado. Seja o primeiro!