Cifra da música: Smockestack Lightning - Soundgarden

Esse cifra de Soundgarden já foi acessado por 483 pessoas.

Comente

A música Smockestack Lightning fez muito sucesso quando foi gravada por Soundgarden. Quer conhecer as demais músicas? Conheça as letras das músicas gravadas por Soundgarden e aproveite.

Veja também o vídeo da música tocada.


+++++++++++++++++++++++++++++++++++++++++++++++++++++++++++++++++++++++++
* Essa música é muito fácil, a afinação é normal
* Com essas 3 partes dá p/ tocá-la tranqüilamente...
+++++++++++++++++++++++++++++++++++++++++++++++++++++++++++++++++++++++++

Smockestack Lightning

e|---------------------------------------------------------------
B|---------------------------------------------------------------
G|-----------------9-----------------------7---------------------
D|-----------------9-------------7/9-----------9---7---5-------5-
A|-----------------7---------------------------------------7-----
E|-0-------0-----------------------------------------------------

e|---------------------------------------------------------------
B|---------------------------------------------------------------
G|---------------------------------------------------------------
D|-7---5-------------------------------5---5h7p5-----------------
A|---------7-----------5---7-----------------------7-------------
E|---------------------------------------------------------------

e|---------------------------------------------------------------
B|---------------------------------------------------------------
G|---------------------------------------------------------------
D|-------------5---5h7p5-----------------------------------------
A|-5---7-------------------7-----------5---7-----------5---7-----
E|---------------------------------------------------------------

LETRA:
Smokestack Lightning 
(C.Burnett) 
Smokestack lightning
Shine a light home
Smokestack lightning
Shining like gold
Treats me like a clown
Wheels go driving slow
Trucks me out of town
Wheels go driving slow
Tell me baby
So when you coming home
Tell me baby
When you coming home
Wheels go driving slow
Wheels go driving slow
Wheels go driving slow 




Quer fazer uma correção nesta cifra?







    Comentários (0) Postar um Comentário

    Nenhum comentário encontrado. Seja o primeiro!