Cifra da música: Searching With My Good Eyes Closed - Soundgarden

Esse cifra de Soundgarden já foi acessado por 461 pessoas.

Comente

A música Searching With My Good Eyes Closed fez muito sucesso quando foi gravada por Soundgarden. Quer conhecer as demais músicas? Conheça as letras das músicas gravadas por Soundgarden e aproveite.

Veja também o vídeo da música tocada.


* Afine a 6º corda(E) em B(si)

Searching With My Good Eye Closed

 Intro:             Repita 8 vezes(aumentando o volume aos poucos)
e||-------||-----------------------------||
B||-------||-----------------------------||
G||--0-5--||o--7----7---7---7---7--0-5--o||
D||--0-0--||o--0--0---0---0---0----0-0--o||
A||-------||-----------------------------||
B||-------||-----------------------------||

Toque alternando estes riffs abaixo, durante os versos: 
e||-------||------------------------------||
B||-------||------------------------------||
G||--0-5--||o--7/-11----0-5-11-7---0-5--o||
D||--0-0--||o--0--0-----0-0-0---0---0-0--o||
A||-------||------------------------------||
B||-------||------------------------------||

e||-------||-------------------------------------||
B||-------||-------------------------------------||
G||--0-5--||o--7--7--7--10-10-10-10-10-10-0-5---o||
D||--0-0--||o--0--0--0--0--0--0--0--0--0--0-0---o||
A||-------||-------------------------------------||
B||-------||-------------------------------------||

Em '...and the devil says...' toque este riff.
|-7-7-7-7-7-7-7-7-7-7-7-7-2--2--|
|-0-0-0-0-0-0-0-0-0-0-0-0-0--0--|

Verso Riff 1:
G||----------------------------|----------------------------||
D||----------------------------|----------------------------||    
A||-0h2-2-2-2-2-0-5br--2-2-2-0-|-0h2-2-2-2-2-0-5br--2-2-2-0-||    
B||-0-0-0-0-0-0-0-0----0-0-0-0-|-0-0-0-0-0-0-0-0----0-0-0-0-||    

Refrão Riff: (to the sky...and down...)
           Toque 4 vezes
e||--------------------||--------------------------|
B||--------------------||----------------------3b--|
G||o------------------o||------9-------------------|
D||o-2/-4-4-4-4-4-4-4-o||-7/-9-9-------------------|
A||--0h-2-2-2-2-2-2-2--||-5/-7-7-------------------|
B||--0--0-0-0-0-0-0-0--||-------------3b-0---------|

e|-------------------------------------------------|
B|----------------------------------------------3b-|
G|-------2-------4-------2-------------------------|
D|-----2-----2-------2-------2---------------------|
A|---0---------0-------0-------0-------------------|
B|-5-----------------------------5br----3b-0-------|

2º verso Riff: (Gtr.    Toque 8 vezes      Na 8º vez, finalize c/ este
e||---------------------------------------|| ---------------------
B||---------------------------------------|| -------5b-----------
G||o-1h2p1-1h2/4~~-2h4p2-4br~~--2h4p2~~--o|| -2h4p2---------------
D||o-------------------------------------o|| ---------------------
A||---------------------------------------|| ---------------------
B||---------------------------------------|| ---------------------

Interlúdio
e||-------------------------|-----------------------------------||
B||-------------------------|-----------------------------------||
G||o------------------------|----------------------------------o||
D||o------------------------|----------------------------------o||
A||---7h9-9--9-7h9p7-7-6-6--|-4h6p4--4--2--2---4h6p4--4--2--2---||
B||-------------------------|-----------------------------------||
                              
						     Toque 4 vezes 
e||---------------------------------***--------||
B||--------------------------------(5br)~~~~---||
G||o-1h2p1-1h2/4~~-2h4p2-4br~~--2h4p2~~-------o||
D||o------------------------------------------o||
A||--------------------------------------------||
B||--------------------------------------------||

Ponte:(Parte em que a música “pára”)              
e||---0-5-7---7---7---7---7----||-0-5-7/-11-----0-5-11-7-----||
B||---0-0-0-0---0---0---0---0--||-0-0-0---0-----0-0--0--0-----||
G||o--------------------------o||o---------------------------o||
D||o--------------------------o||o---------------------------o||
A||----------------------------||-----------------------------||
B||----------------------------||-----------------------------|| 

 (But I'm on my way....on my way...)
e||--0-5-7-7-7-7-7-10-10-10-10-10-10--||
B||--0-0-0-0-0-0-0--0--0--0--0--0--0--||
G||o---------------------------------o||
D||o---------------------------------o||
A||-----------------------------------||
B||-----------------------------------|| 

Depois toque a primeira parte sobre o refrão e até fim da música.

LETRA:

SEARCHING WITH MY GOOD EYE CLOSED 

Painted blue across my eyes
And tie the linen on
And I'm on my way
Looking for the paradigm
So I can pass it off
Is it on my side

Is it to the sky
Looking to the sky and down
Searching for a ground
With my good eye closed

If I took you for a ride
Would you take it wrong
Or would you make it right
Looking for a pedestal
That I can put you on
And be on my way

Is it to the sky
Looking to the sky and down
Searching for a ground
With my good eye closed

Stop you're trying to bruise my mind
I can do it on my own
Stop you're trying to kill my time
It's been my death since I was born
I don't remember half the time
If I'm hiding or I'm lost
But I'm on my way 





Quer fazer uma correção nesta cifra?







    Comentários (0) Postar um Comentário

    Nenhum comentário encontrado. Seja o primeiro!