Cifra da música: Nazi Driver - Soundgarden

Esse cifra de Soundgarden já foi acessado por 463 pessoas.

Comente

A música Nazi Driver fez muito sucesso quando foi gravada por Soundgarden. Quer conhecer a letra dela? Veja a letra de Nazi Driver e cante.

Veja também o vídeo da música tocada.


* Afine a sexta corda E(mi) em D(ré) 



Riff 1:
e|----||-----------------------------|
B|----||-----------------------------|
G|----||-----------------------------|
D|----||-----------------------------|
A|----||-----------------------------|
D|19-||-7--4-7--4-7-4-7--4-7--4-7-4-|

Riff 2 (palm muted)
e|-------------------------------|
B|-------------------------------|
G|-------------------------------|
D|-------------------------------|
A|-7--4-7--4-77-4-7--4-7--4-77-4-|
D|-7--4-7--4-77-4-7--4-7--4-77-4-|

Riff 3:
e|----------------------------------------------------------------|
B|----------------------------------------------------------------|
G|----------------------------------------------------------------|
D|-9--7-9--7-9--9--7-9--7-9--9--7-9--7-9--10-10-10-10-10-10-10-10-|
A|-9--7-9--7-9--9--7-9--7-9--9--7-9--7-9--10-10-10-10-10-10-10-10-|
D|-9--7-9--7-9--9--7-9--7-9--9--7-9--7-9--10-10-10-10-10-10-10-10-|

Riff 4:
e|------------------------|
B|-----5-------6/86--5b--|
G|--------7-5-------------|
D|-5h7--------------------|
A|------------------------|
D|------------------------|

Riff 5:
e|-----------------|
B|-----------------|
G|-4h5-4~--3h4-3~--|
D|-----------------|
A|-----------------|
D|-----------------|

Toque o Riff 5 antes do Riff 1 e 2 ocasionalmente.

Riff 6:
e|-----------------|
B|--6~~~~--7~~~~---|
G|--8b~~~--9b~~~---|
D|-----------------|
A|-----------------|
D|-----------------|

O fim é assim:
e|----------------------|
B|----------------------|
G|----------------------|
D|--7--------4---------|
A|--7--------4---------|
D|--7--------4---------|

LETRA:

Nazi Driver

I don't care if it takes some time
Gonna make it right
I'm gonna make it right
Turn the head to 360 degrees
Bite the hand that feeds
I don't care if it tastes like poison
Rip the legs from the thighs
Feed the prison, open the eyes
I don't care if it tastes like poison
I'm gonna feed the prison
Feed the prison
Color in with lakes of red
Pile of bones for my bed
I'm gonna take some time
I'm gonna take some time
Feed the prison

Not a tear will be shed
The only color is red
I don't care if it takes some time
I'm gonna make it right
I'm gonna make it right
Turn the head 360 degrees
Bite the hand that feeds
I don't care if it tastes like poison
Rip the legs from the thighs
Feed the prison
Open the eyes

Not a tear will be shed
The only colour is red
I don't care if it tastes like poison
I'm gonna feed the prison
I'm gonna feed the prison...






Quer fazer uma correção nesta cifra?







    Comentários (0) Postar um Comentário

    Nenhum comentário encontrado. Seja o primeiro!