Cifra da música: Mind Riot - Soundgarden

Esse cifra de Soundgarden já foi acessado por 439 pessoas.

Comente

A música Mind Riot fez muito sucesso quando foi gravada por Soundgarden. Quer conhecer a letra dela? Veja a letra de Mind Riot e cante.

Veja também o vídeo da música tocada.


* Afine todas as cordas em E (mi). 
* Para facilitar, as tablaturas foram feitas com as notas normais,
 subentende-se então que todas as cordas estão afinadas em mi.

Mind Riot
 
INTRO 
E---||-------------------------||---------------------------------------
B---||-------------------------||---------------------------------------
G---||*------------------------||---------------------------------------
D---||*------------------------||--------0--7h9-------------------------
A---||---0--0--0--0--0--0--0---||--0--0----------0--0--0--0--0--0-------
E---||---0--0--0--0--0--0--0---||--0--0----------0--0--0--0--0--0-------

E----||-------------------------------------||-----------------||-------
B----||-------------------------------------||-----------------||-------
G---*||-------------------------------------||-----------------||-------
D---*||--------0h7--7h9-----7--5--5---------||-----------------||-------
A----||--0--0------------0--7--5--5-----0---||-----------------||-------
E----||--0--0------------0--------------0---||-----------------||-------

Versos
E------------------|--------------|-------------------------------------
B------------------|--------------|-------------------------------------
G---2h4p2p0--0--0--|--2h4p2p0--0--|-------------------------------------
D---------0--2--2--|--------0--4--|-------------------------------------
A---------0--2--2--|--------0--4--|-----------------------0--2--3--0----
E---------0--------|--------0-----|-----------------------0--2--3--0----

E----------------------------------|------------------------------------
B---------------12-----------------|-----------------------------12-----
G---------------12-----------------|-----------------------------12-----
D---------------12-----------------|------------------------------------
A---0--0--0--0------0--0--3--3--2--|-----------------0--2--3--0---------
E---0--0--0--0------0--0--3--3--2--|-----------------0--2--3--0---------

Refrão
E---------------------------|-----------------------0--0--0--0--0--0----
B---h14--12-----------------|-----------------------6--6--6--6--6--6----
G----14--12-----------------|-----------------------6--6--6--6--6--6----
D---------------------------|-----------------------6--6--6--6--6--6----
A------------0--0--3--3--2--|-------------------------------------------
E------------0--0--3--3--2--|-------------------------------------------

E---0--|--0--0--0--0--0--3--0--|--0--0--0--0--0--0--0--0--|--0--0--0----
B---6--|--2--2--2--2-----------|--5--5--5--5--5--5--5--5--|--0--0--0----
G---6--|--2--2--2--2-----------|--5--5--5--5--5--5--5--5--|--0--0--0----
D---6--|--2--2--2--2-----------|--5--5--5--5--5--5--5--5--|--0--0--0----
A------|-----------------------|--------------------------|-------------
E------|-----------------------|--------------------------|-------------

E---0--0--3--2--|--0--0--0--0--0--0--0--0--0--0--|----------------------
B---0-----------|--2--2--2--2--2--2--2--2--2--2--|----------------------
G---0-----------|--2--2--2--2--2--2--2--2--2--2--|----------------------
D---0-----------|--2--2--2--2--2--2--2--2--2--2--|----------------------
A---------------|--------------------------------|----------------------
E---------------|--------------------------------|----------------------

E------------------------------------------11--12--7--9--5--4--0--------
B------------------------------------------11--12--7--9--5--4--0--------
G------------------------------------------11--12--7--9--5--4--0--------
D------------------------------------------11--12--7--9--5--4--0--------
A-----------------------------------------------------------------------
E-----------------------------------------------------------------------

'I'm tired within........' 
E---|--0--0--0--0--0--0--0----------------------------------------------
B---|--4--4--4--4--4--4--4----------------------------------------------
G---|--4--4--4--4--4--4--4----------------------------------------------
D---|--4--4--4--4--4--4--4----------------------------------------------
A---|-------------------------------------------------------------------
E---|-------------------------------------------------------------------

'I'm lucks last match struck..........' 
E---3-------------------------------------------------------------------
B---3-------------------------------------------------------------------
G---3-------------------------------------------------------------------
D---1-------------------------------------------------------------------
A---1-------------------------------------------------------------------
E---1-------------------------------------------------------------------

'in the pouring down wind' 
E---|--2----------------------------------------------------------------
B---|--2----------------------------------------------------------------
G---|--2----------------------------------------------------------------
D---|--2----------------------------------------------------------------
A---|--2----------------------------------------------------------------
E---|--2---------------------------------------------------------------- 

Mind Riot

I was slipping through the cracks of a stolen jewel
I was tightrope walking in two ton shoes
Now somebody is talking about a third world war
And the police said this was normal control

And the candle was burning yesterday
Like somebody's best friend died
And I've been caught in a mind riot

I was crying from my eye teeth and bleeding from my soul
And I sharpened my wits on a dead man's skull
I built an elevator from his bones
Had to climb to the top floor just to stamp out the coals

And the candle was burning yesterday
Like somebody's best friend died
And I've been caught in a mind riot

I'm tied within
I'm luck's last match struck
In the pouring down wind




Quer fazer uma correção nesta cifra?







    Comentários (0) Postar um Comentário

    Nenhum comentário encontrado. Seja o primeiro!