Cifra da música: Like Suicide - Soundgarden

Esse cifra de Soundgarden já foi acessado por 461 pessoas.

Comente

A música Like Suicide fez muito sucesso quando foi gravada por Soundgarden. Quer conhecer a letra dela? Veja a letra de Like Suicide e cante.

Veja também o vídeo da música tocada.


* Ela não está completa, tem um solo no final que eu não peguei
* A afinação é a seguinte:
  6º 5º 4º 3º 2º 1º - Cordas (da mais grossa p/ a mais fina)
  E  A  D  G  B  e – Afinação normal 
  D  G  D  G  B  C – Afinação da música

Introdução:
C---------0-------0-|-------0--------0-|
B-------0-------0---|----0--------0----|
G-----2------2------|-2--------2-------|
D--0----------------|------------------|
G-------------------|------------------|
D-------------------|-------------------

Verso:
C--------|----|-----------|------|-----------|
B--------|----|-----------|------|-----------|
G--76/9-|-7--|--6b(8)r6--|--2--|--/4b(6)r4-|
D--------|----|-----------|------|-----------|
G--76/9-|-7--|--6b(8)r6--|--2--|--/4b(6)r4-|
D--------|----|-----------|------|-----------|

C------0-----|------------|
B-----0---0--|------------|
G----0-----0-|------------|
D--5---------|-3-/5--5----|
G------------|------------|
D--5---------|-3-/5--5----|

Pré-refrão 
C-------------------|--------------------|
B-------------------|--------------------|
G--11/12-/14-12-11--|-/17--16/17--14-12--|
D-------------------|--------------------|(Três vezes)
G--11/12-/14-12-11--|-/17--16/17--14-12--|
D-------------------|--------------------|

C---------------------|--------------|
B---------------------|--------------|
G--/17--16--1412-11--|-9--/11-11----|
D---------------------|--------------|
G--/17--16--1412-11--|-9--/11-11----|
D---------------------|--------------|

Refrão
C------------0--------|----------0-------|-----------------|------------|
B----------0---0------|--------0---0-----|-----------------|------------|
G--------0-------0----|------0-------0---|-------0---------|------------|
D-----12--------------|---12-------------|----12---------0-|------------|
G--10--------------10-|-9--------------9-|-10--------------|-9----11-11-|
D---------------------|------------------|---------9--10---|-10---12-12-|
“She lived like a murder how she'd fly..so sweet----ly..”

 

Riff antes do segundo refrão:

C-----------|---------|-----------|------|--------------|---------------|
B-----------|---------|-----------|------|--------------|---------------|
G--7--6--/9-|-7-------|-6br6-----|-2----|-4br4---------|---------------|
D--7--6--/9-|-7-------|-6br6-----|------|----------5---|-7-7----x--5---|
G--7--6--/9-|-7-------|-6br6-----|-2----|-4br4-----5---|-7-7----x--5---|
D--7--6--/9-|-7---(0)-|-6br6-----|-0----|-3------3-3---|-5-5----x--3---|

C----------------|------|
B----------------|------|
G----------------|------|
D--7-7----x--5---|-7-7--|
G--7-7----x--5---|-7-7--|
D--5-5----x--5---|-7-7--|
  
LETRA:

Like Suicide

Heard it from another room
Eyes were waking up just to fall asleep
Love's like suicide
Dazed out in a garden bed
With a broken neck lays my broken gift
Just like suicide

And my last ditch
Was my last brick
Lent to finish her
Finish her

Bit down on the bullet now
I had a taste so sour
I had to think of something sweet
Love's like suicide
Safe outside my gilded cage
With an ounce of pain
I wield a ton of rage
Just like suicide

With eyes of blood
And bitter blue
How I feel for you
I feel for you

She lived like a murder
How she'd fly so sweetly
She lived like a murder
But she dies
Just like suicide




Quer fazer uma correção nesta cifra?







    Comentários (0) Postar um Comentário

    Nenhum comentário encontrado. Seja o primeiro!