Cifra da música: Gun - Soundgarden

Esse cifra de Soundgarden já foi acessado por 383 pessoas.

Comente

A música Gun fez muito sucesso quando foi gravada por Soundgarden. Quer conhecer a letra dela? Veja a letra de Gun e cante.

Veja também o vídeo da música tocada.


Tuning: DADGBE

The coolest thing about this song is that it starts off really slow (60
bpm?) And gets faster and faster and faster and faster and faster and faster
until a really fast and short guitar solo.

D-/7--| 
A-/7--|
D-/7--|

  Intro Riff A:
D|-----------------|-----------------|------------------|      
A|-----------------|-----------------|-------2-2--(2)--|      
D|-0-2-3-0-2-3-0-0-|-0-2-3-0-2-3-2-0-|-3-2-0-2-2--(2)--|      

D|------------------|
A|-------2-2---x-x--|
D|-3-2-0-2-2---x-x--|

  Intro Riff B:
D|---2-3---2-3-----|---2-3---2-3-2---|-3-2---2-2--(2)--|
A|-----------------|-----------------|-------2-2--(2)--|
D|-0-----0-----0-0-|-0-----0-------0-|-----0------------|

D|-----------------|
A|-------2-2--(2)/-|
D|-3-2-0-2-2--(2)/-|

  Verse Riff: (palm muted)
D|-----------------|-----------------|------------------|
A|-0-2-3-0-2-3-0-0-|-0-2-3-0-2-3-2-0-|-2-2-0-2-2--x-x-0-|
D|-0-2-3-0-2-3-0-0-|-0-2-3-0-2-3-2-0-|-2-2-0-2-2--x-x-0-|

D|--------------------|
A|-3-2-0-2-2--x-x-x-x-|
D|-3-2-0-2-2--x-x-x-x-|

Then play Riff A twice again. Then the verse again ending it with this:

D|-/7--|
A|-/7--|
D|-/7--|

 Riff after 2nd verse:
D|---------------|-------/7-----|
A|-2-2-0-2-2---0-|-2-2-0-/7---0-|
D|-2-2-0-2-2---0-|-2-2-0-/7---0-|

Pre-Solo Riff:
D|-----------------|------------------|
A|-----------------|------------------|
D|-2-2-0-2-2-2-2-0-|-2-2-0-/7-7-7-7-0-|

Solo Riff:
D|-----------------|-----------------|-------/7----|-------/5---|
A|-----------------|-----------------|-------/7----|-------/5---|
D|-2-2-0-2-2-2-2-0-|-2-2-0-2-2-2-2-0-|-2-0-0-/7----|-2-0-0-/5---|

Then play the pre-solo Riff 4 times again and start the Intro Riff A and B
and the original tempo.

Third Verse (outro):
D|-----------------|-----------------|-------/7--------||
A|-0-2-3-0-2-3-0-0-|-0-2-3-0-2-3-2-0-|-2-2-0-/7--------||
D|-0-2-3-0-2-3-0-0-|-0-2-3-0-2-3-2-0-|-2-2-0-/7--------||




Quer fazer uma correção nesta cifra?







    Comentários (0) Postar um Comentário

    Nenhum comentário encontrado. Seja o primeiro!