Cifra da música: Full On Kevin's Mom - Soundgarden

Esse cifra de Soundgarden já foi acessado por 357 pessoas.

Comente

A música Full On Kevin's Mom fez muito sucesso quando foi gravada por Soundgarden. Quer conhecer as demais músicas? Conheça as letras das músicas gravadas por Soundgarden e aproveite.

Veja também o vídeo da música tocada.


Tuning: DADGBE

Much to my astonishment I found *my* previous tab of this song filled with a
few errors and such. I have corrected them.
The part under the solo may not be right though.

A song about adolescence and such. Pretty crappy song but nobody else has
tabbed it. So I did.

Intro: Feedback with bass playing first bars of Intro Riff. Then guitar
plays it.

Intro Riff:
D|-------------------|-------------------|-----------------|     
A|-00005p007p0-8-888-|-00005p007p0-8-888-|-00003b-00-/6----|     
D|-------------------|-------------------|-----------------|     

G|-----------------||---------------|--------------||
D|-----------------||o--------------|-------------o||
A|-00003b-00-/6----||o-00003b-000---|-00003b-000--o||
D|-----------------||---------------|--------------||
                                                              
Verse Riff A:
G||------------------|--------------|--------------||
D||o-----------------|--------------|-------------o||
A||o--00003b-00-/8---|-00003b-000---|-00003b-000--o||
D||-------------/8---|--------------|--------------||

Verse Riff B:
D|-------------------|-------------------|-------------------|   
A|-00005p007p0-8-888-|-00005p007p0-8-888-|-00005p007p0-8-888-|   
D|-------------------|-------------------|-------------------|

Pre-chorus Riff:
E|------------------------------------------------------|
B|--9--9--9--9--9--9---9---9--9--9--9---9---9--9--9--9--|
G|-11b11b11b11b11b11b-11b-11b11b11b11b-11b-11b11b11b11b-|
D|------------------------------------------------------|

After the SECOND pre-chorus only, the guitar plays this:
E|------------------------------------------------|
B|--7--7--7---7---7---7--7--7--7---7---7---7--7---|
G|--9b-9b-9b--9b--9b--9b-9b-9b-9b--9b--9b--9b-9b--|
D|------------------------------------------------|

Chorus:
D|-------------------|--------------------|
A|-------------------|--------------------|
D|-2---0---2---0--2--|--5---7---5---6--5--|

End chorus with this and hold it while the bass plays the intro part again:
D|-------------------|--------------------|
A|-------------------|--------------------|
D|-2---0---2---0--2--|-5---6~~~~----------|

I don't know the solo (it's improvised) or the part underneath it but that
part is really easy to figure out.

I THINK this is the part under the solo:
D|--3---0--x-x-xx-|-6---0--x-x-xx-|-3---0--x-x-xxx-|-x-x-x-xx-x-|
A|--3---0--x-x-xx-|-6---0--x-x-xx-|-3---0--x-x-xxx-|-x-x-x-xx-x-|
D|--3---0--x-x-xx-|-6---0--x-x-xx-|-3---0--x-x-xxx-|-x-x-x-xx-x-|



Quer fazer uma correção nesta cifra?







    Comentários (0) Postar um Comentário

    Nenhum comentário encontrado. Seja o primeiro!