Cifra da música: Fell On Black Days - Soundgarden

Esse cifra de Soundgarden já foi acessado por 476 pessoas.

Comente

A música Fell On Black Days fez muito sucesso quando foi gravada por Soundgarden. Quer conhecer a letra dela? Veja a letra de Fell On Black Days e cante.

Veja também o vídeo da música tocada.


Toque o riff 13 vezes, uma outra guitarra também toca este riff, 
mas esta começa a tocar no mesmo instante em que o vocalista começa a cantar 

e---------------------------------   e------- 
B---9--------4---------1-1-1-1----   B---5~-- 
G---9--------4--2--0---0-0-0-0----   G-------
D---9-----4br4--2--0---2-2-2-2----   D-------
A---7-----2--2--2--0---3-3-3-3----   A-------
E---------------------------------   E-------

Depois toque este:
e---------------2-2-2-2-----------
B--4--4--4--4---3-3-3-3--1-1------
G--4--4--4--4---2-2-2-2--0-0------
D--4--2--4--2---0-0-0-0--2-2------
A--2--2--2--2------------3-3------
E---------------------------------

Volte p/ o 1º riff 

“How would I know that this would be my fate”. 
e----------------------------------------------------------
B--7--7-7--9----4-------1-1-1-1--9----4--------5--7-7--7-9-
G--7--7-7--9----4--2--0-0-0-0-0--9----4--2--0--5--7-7--7-9-
D--7--7-7--9-4br4--2--0-2-2-2-2--9-4br4--2--0--5--7-7--7-9- etc
A--5--5-5--7-2--2--2--0-3-3-3-3--7-2--2--2--0--3--5-5--5-7-
E----------------------------------------------------------

Solo: 

“hooooo”!!!
e---------------------------------------------------------
B------5---9---10----12h13p12----12-15-13-12-12-12--------
G-----------------------------14-------------------14sl-- X 2
D--4------------------------------------------------------
A--2------------------------------------------------------
E---------------------------------------------------------

Na terceira vez toque este:
e-----------------------------------------------------------
B------5---9---10----12h13p12----12-15-13-12h13p12-12----12-
G-----------------------------14----------------------14----
D--4--------------------------------------------------------
A--2--------------------------------------------------------
E-----------------------------------------------------------

e--------------------------------------
B--12h13p12-12----15-15-13-12----12sl-
G--------------14-------------14-------
D--------------------------------------
A--------------------------------------
E--------------------------------------



A outra guitarra toca a música inteira assim: 
 
fig. 1 pm----------- pm--------
e------------------------------------------------------------------------
B------------------------------------------------------------------------
G--9--------------------------9----------------------------9-------------
D--9----^9-(9)-7-0------------9----^9-(9)--7--0------------9--^9-(9)-7-0-
A--7----^9-(9)-7-0--7-7-7-7---7----^9-(9)--7--0--7-7-7-7---7--^9-(9)-7-0-
E----x--^7----------8-8-8-8-0---x--^7------------8-8-8-8-0--x--^7--------

pm------------
e-------------------------------------------------
B-------------------------------------------0-----
G----------------9--------------------------0-----
D----------------9-------^9--(9)--7--0------x-----
A--7-7-7-7-------7-------^9--(9)--7--0--8---7-----
E--8-8-8-8-0----------x--^7-------------8---8-----
A fig. 1 é tocada durante os versos

fig. 2
e---------------------------------------------------0--0------
B---------------------------------------------------0--0------
G-----------------------------------------7---------0--0------
D----9---9--9--9-----9-----9---(9)7--7---7---------2--2------
A----7---7--7--7-----7-----9---(9)7--7---5---------3--3------
E----7---7--7--7--x--7--x--7---(7)5--5-----------------------
Toque esta parte depois do verso, ele é uma “ponte” para o solo.
 
Agora toque o riff de introdução durante o refrão “Cause I fell...“
 

LETRA:
Fell On Black Days 
Whatsoever I've feared has come to life
Whatsoever I've fought off became my life
Just when everyday seemed to greet me with a smile
Sunspots have faded
And now I'm doing time
Cause I fell on black days

Whomsoever I've cured I've sickened now
Whomsoever I've cradled I've put you down
I'm a search light soul they say
But I can't see it in the night
I'm only faking when I get it right
Cause I fell on black days
How would I know
That this could be my fate

So what you wanted to see good has made you blind
And what you wanted to be yours has made it mine
So don't you lock up something that you wanted to see fly
Hands are for shaking
No, not tying
No, not tying

I sure don't mind a change
But I fell on black days
How would I know
That this could be my fate 





Quer fazer uma correção nesta cifra?







    Comentários (0) Postar um Comentário

    Nenhum comentário encontrado. Seja o primeiro!