Cifra da música: Face Pollution - Soundgarden

Esse cifra de Soundgarden já foi acessado por 450 pessoas.

Comente

A música Face Pollution fez muito sucesso quando foi gravada por Soundgarden. Quer conhecer a letra dela? Veja a letra de Face Pollution e cante.

Veja também o vídeo da música tocada.


Intro:
|-0-0-0-0-0--0-0--0-000-00--|-0-000-00-0-00-0--0-0-0--0-|
|-5-5-5-5-5--5-5--5-555-55--|-5-555-55-5-55-5--5-5-0--0-|
|---------------------------|---------------------------|
|---------------------------|---------------------------| 
|---------------------------|---------------------------|
|---------------------------|---------------------------|

Verso: (riff 1)
|---------------------------|---------------------------|
|---------------------------|---------------------------|
|---------------------------|---------------------------|
|--7-7-7-6--5--5-6p5-6p5-0--|--7-7-7-6--5--5-5-5-5-5-0--|
|--7-7-7-6--5--5-6p5-6p5-0--|--7-7-7-6--5--5-5-5-5-5-0--|
|--7-7-7-6--5--5-6p5-6p5-0--|--7-7-7-6--5--5-6p5-6p5-0--| 
*É possível substituí-la tocando G5.

Verso: (riff 2)
|--------------------------|--------------------------|
|--------------------------|--------------------------|
|---6----5--4~~~-----------|---6----5--4~~~-----------|
|--------------------------|--------------------------|
|--------------------------|--------------------------|
|--------------------------|--------------------------|

Refrão: (I dont feel like feelin')
|--------------------|--------------------|
|--------------------|--------------------|
|--------------------|--------------------|
|--12---15p12-15p12--|--12---15p12-15p12--|
|--12---15p12-15p12--|--12---15p12-15p12--|
|--12---15p12-15p12--|--12---15p12-15p12--|

Toque a introdução uma vez e conclua a música com o solo abaixo.

solo:
|----------------5-7-5-|---------------------------------------|
|--7-5-------5-7-------|--7-5---5-7-----------5-7--------------|
|------7-5-7-----------|------7-----7-5-----7-----7--5~~~------|
|----------------------|----------------7-5--------------------|
|----------------------|---------------------------------------|
|----------------------|---------------------------------------|
 
Face pollution! 
|--------------------------|--------------------------|
|--------------------------|--------------------------|
|--------------------------|--------------------------|
|-------------0--10-12-10--|-------------0--10-12-10--|
|-------------0--10-12-10--|-------------0--10-12-10--|
|----12-12-12-0--10-12-10--|-12-12-12-0--10-12-10-----|

LETRA: 

Face Pollution 
(Shepherd/ Cornell) 
I can count it on my fingers
I've got all my reasons not to feel
I'm numb as rigor mortis
Scared by monkey faces
Drowned in shark fins
But I don't feel like feeling
Feeling like you
Now I'm in the mirror
Now it's getting clear
I fear that I'm in you
Now I'm into plastics
Now I've made a mask
It looks like fish heads
But I don't feel like feeling
Feeling like you
Face pollution
Face pollution
Face pollution
Face pollution 




Quer fazer uma correção nesta cifra?







    Comentários (0) Postar um Comentário

    Nenhum comentário encontrado. Seja o primeiro!