Cifra da música: Big Dumb Sex - Soundgarden

Esse cifra de Soundgarden já foi acessado por 456 pessoas.

Comente

A música Big Dumb Sex fez muito sucesso quando foi gravada por Soundgarden. Quer conhecer a letra dela? Veja a letra de Big Dumb Sex e cante.

Veja também o vídeo da música tocada.


Music/Lyrics: Cornell

Intro:

||----------------||-------------12--|--------------|
||----------------||------------------|--------------|
||o-11-11b--11r--o||-11-11b--11r------|--------------|
||o-11-11b--11r--o||-11-11b--11r------|--7--9--2--9--|
||----------------||------------------|--7--9--2--9--|
||----------------||------------------|--5--7--0--7--|

Intro to Verses:
                          
|----------------|----------------|
|----------------|----------------|
|----------------|----------------|  Repeat as necessary...
|-7--7-----------|-7--7-----------|
|------9-7---7-9-|------9-7---7-9-|
|----------9-----|----------9-----|

All Verses:

|----------|----------|----------------|----------------|
|----------|----------|----------------|----------------|         
|----------|----------|----------------|----------------|         
|-7~~~~----|-~~~~-----|----------------|-7--7-----------|         
|----------|----------|-9--9-7-------7-|------9-7---7-9-|         
|----------|----------|--------9-7-9---|----------9-----|          
Repeat this:         
|----------|----------|----------------|----------------|
|----------|----------|----------------|----------------|
|----------|----------|----------------|----------------|
|-9b10r9~~-|-~~~~-----|----------------|-7--7-----------|
|----------|----------|-9--9-7-------7-|------9-7---7-9-|
|----------|----------|--------9-7-9---|----------9-----|

Play that last group of measures 2 more times then play this:

|----------------||--------------------||------------------| 
|----------------||--------------------||------------------| 
|----------------||o------------------o||------------------| 
|----------------||o-7--7-------------o||-7--7-------------|  
|-9--9-7-------7-||-------9-7-------7--||------9-7-------7-|  
|--------9-7-9---||-----------9-7-9----||----------9-7-9---| 

Then play the second verse the same as the first and then play the above
part again.

Chorus:

||-----------------|---------||--------------|
||-----------------|---------||--------------|
||o----------------|--------o||--------------|
||o-7--7-----------|-7-----o||--7--9--2--9--|
||-------9-7---7-9-|---------||--7--9--2--9--|
||-----------9-----|---------||--5--7--0--7--|

|----------------|-----------------||
|----------------|-----------------||
|----------------|----------------o||
|-7--7-----------|-7--7-----------o||
|------9-7---7-9-|------9-7---7-9--||
|----------9-----|----------9------||

The part played under the solo is the Verse Intro and the Outro Chorus
consists of the same bends that are in the Intro. The next two verses are
the exact same as the first two except the last verse is played an octave
higher. And you end on this:

|----------------|-----------|
|----------------|-----------|
|----------------|-----------|
|-7--7-----------|-7--------|
|------9-7---7-9-|-----------|
|----------9-----|-----------|



Quer fazer uma correção nesta cifra?






    Comentários (0) Postar um Comentário

    Nenhum comentário encontrado. Seja o primeiro!