Cifra da música: Special Delivery - Offspring

Esse cifra de Offspring já foi acessado por 452 pessoas.

Comente

Tom: Eb

Intro:

( Bateria )

Gb|-----|---------------------------------------------------------|
Db|-----|---------------------------------------------------------|  [Baixo]
Ab|-----|------------------0-0-2-2-----------------------0-0-2-0--|
Eb|-52-|-2-2--0-2-2--0-2-2---------0-2-2--0-2-2--0-2-2-----------|
        
  |__1x_|_____________________________Tocar 2x____________________|
      

Hey now do you see me down the away
Been Watching you everyday 
In my car on your street is where I stay
I know you better that away
One day I’ll be meeting you for real
You’ll feel bad like your I feel


( Tocar Intro 2x – não tocar ”Eb|-52-|“.)

  ( One day I’ll be meeting you for real...) 
Gb|-----------------------------------------------------------------|
Db|-----------------------------------------------------------------|  [Baixo]
Ab|--0-2-2--0-2-2--0-2-2--0-2h3h2h---------------------7-7-7-7-7-7--|
Eb|---------------------------------0-2-2-2-2-5-5-5-5---------------|


It blow you away 
You’re gonna fall for me, you’re gonna fall for me
And the voices told me to blow you away 
You’re gonna fall for me, you’re gonna fall for me

E|-------------------------------------------------|
B|-------------------------------------------------|
G|---10----8--10----13--10---8--8--10--8-------8---|   [Guitarra]
D|---10----8--10----13--10---8--8--10--8--6----8---|
A|---8-----6--8-----11--8----6--6--8---6--6----6---|
E|----------------------------------------4--------|
 
 |_____________________Tocar 2x____________________| 


Hey now well I’m knocking on your door
This special delivery is yours
My infatuation it’s true 
Hello, I got something for you

( Tocar Intro 2x – não tocar ”Eb|-52-|“.)

It’ll blow you away
You’re gonna fall for me, you’re gonna fall for me
And the voices told me to blow you away
You’re gonna fall for me, you’re gonna fall for me
If hadn’t sold me I’d still be away
You’re right in front of me, you’re right front of me
Then, I’ll be on my way
Breathing you okay                

E|-------------------------------------------------|
B|-------------------------------------------------|
G|---10----8—-10----13--6----8--8--10—-8-------8---|
D|---10----8—-10----13—-6----8--8--10--8--6----8---|
A|---8-----6—-8-----11—-8----6—-6-—8---6—-6----6---|
E|----------------------------------------4--------|

|______________________Tocar 3x____________________|


 ( Then, I’ll be on... )
E|----------------------|
B|----------------------|
G|---6---------8---10---|   [Guitarra]
D|---6----8----8---10---|
A|---4----8----6---8----|
E|--------6-------------|

|________Tocar 1x_______|


Can’t break from my sins
Cannot pray
Can’t break from my sins
Cannot pray

Gb|-------------------------------|
Db|-------------------------------|   [Baixo]
Ab|-----------------------0--2-2--|
Eb|--0-2-2--0-2-2--0-2-2----------|


But you can’t kill a man when he’s got no hope
You can’t kill a man when he’s got no hope
But you can’t kill a man when he’s got no hope
You can’t kill a man when
KILL A MAN!!!

E|-----------------------------------------|
B|-----------------------------------------|
G|-----------------------------------------|   [Guitarra]
D|--3-3-3-3-3-3-3-3-3-3-3-3-3-3-3-3---3-3--|
A|--3-3-3-3-3-3-3-3-3-3-3-3-3-3-3-3---3-3--|
E|--1-1-1-1-1-1-1-1-1-1-1-1-1-1-1-1---1-1--|


It’ll blow you away 
You’re gonna fall for me, you’re gonna fall for me
And the voices told me to blow you away
You’re gonna fall for me, you’re gonna fall for me
If you hadn’t sold me I’d still be away
You’re right in front of me, you’re right in front of me
Then, I’ll be on my way
Breathing you okay


E|-------------------------------------------------|
B|-------------------------------------------------|
G|---10----8--10----13--10---8--8--10--8-------8---|
D|---10----8--10----13--10---8--8--10--8--6----8---|
A|---8-----6—-8-----11—-8----6—-6—-8---6—-6----6---|
E|----------------------------------------4--------| 

|______________________Tocar 3x____________________|


 ( Then, I’ll be on... )
E|----------------------|
B|----------------------|
G|---6---------8---10---|   [Guitarra]
D|---6----8----8---10---|
A|---4----8----6---8----|
E|--------6-------------|

|________Tocar 1x_______|


_______________________________________________________________

Quer fazer uma correção nesta cifra?







    Comentários (0) Postar um Comentário

    Nenhum comentário encontrado. Seja o primeiro!