Cifra da música: Spare Me Details - Offspring

Esse cifra de Offspring já foi acessado por 654 pessoas.

Comente

Veja também o vídeo da música tocada.


Introdução :
------------
------------
----8--6----
-6--8--6----  
-6--6--4----
-4---------- (G# D# C#)

Solo(tá meio ruim) :
---4----8--4-----6------4---
-4---4--------4----6--4---4-
----------------------------
----------------------------
----------------------------
----------------------------

Bridge :
-------------------
----------------9--
-10--8---10--8--8--
-10--8---10--8--6--
-8---6---8---6-----
------------------- (E# D# E# E# G#)
*O G# dessa parte é diferente daquele da Introdução . O da Bridge é mais agudo .

A música fica assim ...

INTRO(2X)
INTRO+SOLO(2X)
VERSO (só bateria e baixo)
INTRO(2X)
INTRO+SOLO(2X)
INTRO(4X)
INTRO+SOLO(2X)
VERSO (só bateria e baixo)
INTRO(2X)
INTRO+SOLO(2X)
INTRO(4X)
BRIDGE(1X)
INTRO+SOLO(2X)
VERSO (só bateria e baixo)
INTRO+VERSO(4X)
INTRO(4X)
INTRO(4X)
INTRO+SOLO(4X)



Quer fazer uma correção nesta cifra?







    Comentários (0) Postar um Comentário

    Nenhum comentário encontrado. Seja o primeiro!