Cifra da música: She´s Got Issues - Offspring

Esse cifra de Offspring já foi acessado por 524 pessoas.

Comente

Veja também o vídeo da música tocada.


Tom:B

pm - palm mute
/ - slide

intro:
            pm___________________|
E|-------------------------------------------------|
B|-------------------------------------------------|
G|-------------------------------------------------|
D|-------9-9-9-9-9-9-9-9-9-9-9-9-9-9-9-------------|
A|-------9-9-9-9-9-9-9-9-9-9-9-9-9-9-9-------------|
E|-------7-7-7-7-7-7-7-7-7-7-7-7-7-7-7-------------|

(pre-verse/verse - using palm mute during the verse)

E|-------------------------------------------------|
B|-------------------------------------------------|
G|-9-9--9-9----------------------------------------|
D|-9-9--9-9--9-9--9-9-11-12-12--11-12-14-7-7-6-7-6-|
A|-7-7--7-7--9-9--9-9-11-12-12--11-12-14-7-7-6-7-6-|
E|-----------7-7--7-7-9--10-10--9--10-12-5-5-4-5-4-|

Riff:

E|-------------------------------------------------|
B|-------------------------------------------------|
G|-4/94/139--4/84/118--4/74/117--------------|
D|-------------------------------------------------|
A|-------------------------------------------------|
E|-------------------------------------------------|

(Continuação)

E|-------------------------------|
B|-------------------------------|
G|-2/62/96/139----------------|
D|-------------------------------|
A|-------------------------------|
E|-------------------------------|

Chorus:

E|-------------------------------------------------|
B|-------------------------------------------------|
G|--9-9-9-7-9-9-9-9--------------------------------|
D|--9-9-9-7-9-9-9-9-9-9-9-7-9-9-9-11-12-12-12-11---|
A|--7-7-7-5-7-7-7-7-9-9-9-7-9-9-9-11-12-12-12-11---|
E|------------------7-7-7-5-7-7-7-9--10-10-10-9----|

(Continuação)

E|-------------------------------------------------|
B|-------------------------------------------------|
G|-------------------------------------------------|
D|--12-12-12-14-7-7-7-6-7-7-7-6--------------------|
A|--12-12-12-14-7-7-7-6-7-7-7-6--------------------|
E|--10-10-10-12-5-5-5-4-5-5-5-4--------------------|

Bridge:

E|-------------------------------------------------|
B|--------------------------------pm_______________|
G|--5--------9--5--------9--5----------------------|
D|--5--5--7--9--5--5--7--9--5--5--9-9-9-9-9-9-9-9--|
A|--3--5--7--7--3--5--7--7--3--5--9-9-9-9-9-9-9-9--|
E|-----3--5--------3--5--------3--7-7-7-7-7-7-7-7--|

Ordem:

1:intro
2:verse
3:chorus
4:verse
5:chorus
6:bridge
7:verse
8:chorus
9:bidge



Quer fazer uma correção nesta cifra?







    Comentários (0) Postar um Comentário

    Nenhum comentário encontrado. Seja o primeiro!