Cifra da música: Pay The Man - Offspring

Esse cifra de Offspring já foi acessado por 512 pessoas.

Comente

Veja também o vídeo da música tocada.


intro w/flanger:
e|-7-8--12-11-5-5/7-7--7-8--12-11-5-12/14-14--5-8--12-11-5-5/7-7--5-5-5-5-7-|
B|-9-10-14-13-7-7/9-7--9-10-14-13-7-14/16-16--7-10-14-13-7-7/9-7--5-5-5-5-7-|
G|-9-10-14-13-7-7/9-8--9-10-14-13-7-14/16-16--7-10-14-13-7-7/9-8--6-6-6-6-8-|
D|-9-10-14-13-7-7/9-9--9-10-14-13-7-14/16-16--7-10-14-13-7-7/9-9--7-7-7-7-9-|
A|-7-8--12-11-5-5/7-9--7-8--12-11-5-12/14-14--5-8--12-11-5-5/7-9--7-7-7-7-9-|
E|------------------7------------------------------------------7--5-5-5-5-7-|

intro 2/verse:
e|-5/7-7-7-7-7--5/7-7-7-7-7-8--8-7-7-7-7-5/7-7-7-7-7-|
B|-7/9-9-9-9-9--7/9-9-9-9-9-10-109-9-9-9-7/9-9-9-9-9-|
G|-7/9-9-9-9-9--7/9-9-9-9-9-10-109-9-9-9-7/9-9-9-9-9-|
D|-7/9-9-9-9-9--7/9-9-9-9-9-10-109-9-9-9-7/9-9-9-9-9-|
A|-5/7-7-7-7-7--5/7-7-7-7-7-8--8-7-7-7-7-5/7-7-7-7-7-|
E|----------------------------------------------------|

riff:
e|-10-8-7-----------7-----------10-8-7-----------7-----------|
B|--------10-9-9-10---10-9-------------10-9-9-10---10-9------|
G|-------------------------10-9-------------------------10-9-|
D|-----------------------------------------------------------|
A|-----------------------------------------------------------|
E|-----------------------------------------------------------|

riff 2:
e|-------------------7-7------------------------7-7--------|
B|------9-9-9-9-9-10-----10-9-9------9-9-9-9-9-10---10-9-9-|
G|-9-10-------------------------9-10-----------------------|
D|---------------------------------------------------------|
A|---------------------------------------------------------|
E|---------------------------------------------------------|

riff 3:
e|-----7-7-7-7-7-8-10-10-12-13-12-10-8h12p8-7-------------7-7-7-7-7-8-10-10-|
B|9-10----------------------------------------9-10-9-9-10-------------------|
G|--------------------------------------------------------------------------|
D|--------------------------------------------------------------------------|
A|--------------------------------------------------------------------------|
E|--------------------------------------------------------------------------|

e|-12-13-12-10-8h12p8-7---12-12-12-12-12-12-12-12-12-|
B|---------------------------------------------------|
G|---------------------------------------------------|
D|---------------------------------------------------|
A|---------------------------------------------------|
E|---------------------------------------------------|

riff 4:
e|-13-16-16-16-16-16-13-12-12h13p12-12-|
B|-------------------------------------|
G|-------------------------------------|
D|-------------------------------------|
A|-------------------------------------|
E|-------------------------------------|

riff 5:
e|-13-16-16-16-16-16-13-12-12-13-12-10----------|
B|-------------------------------------13-12-10-|
G|----------------------------------------------|
D|----------------------------------------------|
A|----------------------------------------------|
E|----------------------------------------------|

verse 2:
e|-------------------------------|
B|-------------------------------|
G|---10--------------------------|
D|-7-10-2-repeated-over-and-over-|
A|-7-8--2------------------------|
E|-5----0------------------------|

riff 6:
e|-12-13-12-10------------------------------------------------|
B|-------------13-12-10-10-12-13-12-10-------------10---------|
G|-------------------------------------13-10-10-13----13-10-9-|
D|------------------------------------------------------------|
A|------------------------------------------------------------|
E|------------------------------------------------------------|

verse 3:
e|-----------------------------------------|
B|-----------------------------------------|
G|-7-14-13-9-------------------------------|
D|------------the-second-guitar-plays-this-|
A|-5-12-11-7-------------------------------|
E|-----------------------------------------|

verse 4:
e|----------------------------------------------|
B|----------------------------------------------|
G|-7/9-9-9-7/9-9-9-5----7/9-9-9-9-7/9-9-9-12-13-|
D|-7/9-9-9-7/9-9-9-5-10-7/9-9-9-9-7/9-9-9-12-13-|
A|-5/7-7-7-5/7-7-7-3-10-5/7-7-7-7-5/7-7-7-12-11-|
E|-------------------8--------------------------|

chorus:(acoustic)    Oooohhh     Shut up    you talk to much
e|-5-5-5-3-3-3-3-------|
B|-6-6-6-4-4-4-4-------|
G|-7-7-7-5-5-5-5-2-2-2-|
D|-7-7-7-5-5-5-5-2-2-2-|
A|-5-5-5-3-3-3-3-2-2-2-|
E|---------------0-0-0-|

outro:
e|---------------------|
B|-9--7--7-----9--7----|
G|-9--7--7-----9--7--2-|
D|-9--7--7-----9--7--2-|
A|-7--5--5-----7--5--2-|
E|-------------------0-|




Quer fazer uma correção nesta cifra?







    Comentários (0) Postar um Comentário

    Nenhum comentário encontrado. Seja o primeiro!