Cifra da música: One Fine Day - Offspring

Esse cifra de Offspring já foi acessado por 435 pessoas.

Comente

Veja também o vídeo da música tocada.


Tom: B

B5       C#5          F#5
If I had perfect day
                D#5            B5
I would have it start this way 
            C#5               F#5               B5
Open up the fridge and have a tall boy – Yeah 
                 C#5               A#5
Then I’d meet up with my friends 
                D#5         G#5
Head out to the game again 
                              C#5  C#5
We don’t even really care who wins
C#5-C#5-C#5 
1 – 2 – 3

Refrão:  

       F#5
|Now excitement seems to grow 
|           B5                    C#5
|When we’re Hangin’with the Bro’s
|C#5
|When we’re chillin’and we pound 
|           F#5
|A case of Stroh’s 
|F#5
|Now the game is cool to see
|             B5        C#5
|You can high 5 on TV 
|C#5                   F#5-F#5-F#5    
|Count the riot on the one two three
|   F#5
|Operation is in sight 
|        B5                   C#5
|And the field is open wide
|C#5                             F#5
|When you break it then you know you’re still alive 
|       F#5
|If the cops don’t make you pay 
|        B5                  C#5
|And you make Your getaway
|C#5                   F#5-F#5-F#5 
|Then you know that’s one fine day


Solo:


E|----------------------------------------------------------|
B|----------------------------------------------------------|
G|--------------------------------1-------------------------|
D|-------4-1---------1-4------1-3---4-----------------------|
A|-----------4-2-2-4------4-4-------------------------------|
E|-2-2-2----------------------------------------------------|


E|----------------------------------------------------------|
B|----------------------------------------------------------|
G|------------------------------1-3-1-----------------------|
D|-------4-1---------1-4----1-3-------4-1-------------------|
A|-----------4-2-2-4-----4-4--------------4-----------------|
E|-2-2-2----------------------------------------------------|

B5            C#5                  F#5
On that day before we’re through 
                 D#5          B5
We could torch a car or two
             C#5            F#5               B5
Then wave ourselves another tall boy – Yeah
            C#5          A#5
Water hoses and batons 
                D#5             G#5
That’s the real game that’s on 
G#5                            C#5  C#5  
I don’t really give a shit who wins    
C#5-C#5-C#5 
1 – 2 - 3

(Refrão)

F#5               B5                C#5
I believe It’s my God-given right 
C#5                   F#5
To destroy everything in my sight 
F#5                          B5               C#5
Cause it never gets dull, It never gets old
C#5               F#5               
The only night It gets is more bold 
F#5                 B5                  C#5
Drinkin’, Fightin’, going to the game 
C#5                 F#5
In our world It’s a away to stay sane
F#5
If you’re asking me
   B5             C#5
To have it my way, I’d say that’s 
F#5
One fine day

(Refrão) 

Final:
C#5                  F#5
Then you know that’s one fine day
C#5 - C#5 - C#5 - C#5           F#5
Hey , hey.            Hey , hey. 




Quer fazer uma correção nesta cifra?







    Comentários (0) Postar um Comentário

    Nenhum comentário encontrado. Seja o primeiro!