Cifra da música: No Brakes - Offspring

Esse cifra de Offspring já foi acessado por 469 pessoas.

Comente

Veja também o vídeo da música tocada.


Tom: D

D5 – E5
Lay awake
E5 – G5
I don’t give a shit 
G5 – A5        G5         G7+ E5  F#5
If I even ever wake up in the morning 
E5
Down below  
E5 – G5
There’s a pile of sin
G5 – A5
Always waiting for a 
G5        G7+ E5  F#5
Waiting for a warning
E5
Burned at the stake 
E5 – G5
Inside I’m blistering 
G5 – A5
Not a whisper 
           G5     G7+   E5  F#5
Looking in you’d never know it
E5
Miles below 
E5 – G5
I look up again
G5 – A5
When you snap they say
  G5         G7+  E5  F#5
Before you never show it 


Riff 1:

    D5    E5       G5       A5    G5      G7+ E5 F#5
E|-----|---------------------------------------------|
B|-----|---------------------------------------------|
G|--7--|--9-----9-----------------12-12-12-11-9--11--|   [Guitarra]
D|--7--|--9-----9--5-----5--7-----12-12-12-12-9--11--|
A|--5--|--7-----7--5-----5--7-----10-10-10-10-7--9---|
E|-----|-----------3-----3--5------------------------|


G5      D5          
Someone said it’s all right 
C5                               G5 
Save it now, don’t say it for my sake 
G5      D5            
Someone said it’s all right 
C5                         D5 E5( “Riff 3” 2x )  
Faster now, you know I got no brakes


Riff 2:

     G5    D5    C5
E|-------------------|
B|-------------------|
G|---------7-----5---|   [Guitarra]
D|---5-----7-----5---|
A|---5-----5-----3---|
E|---3---------------|


Riff 3:

E|----------------------------------------|
B|----------------------------------------|   
G|-----------7--7--6-----------9/109--7--|   [Guitarra]
D|--9--7--9--5--5--4--9--7--9--7/8 7--5--|
A|--7--5--7-----------7--5--7-------------|
E|----------------------------------------|


E5
Fuses glow 
E5 – G5
Wounds festering
G5 – A5
Till the wind comes up
    G5          G7+  E5  F#5
And takes it to the last POW       
E5
Back and forth 
E5 – G5 
Staring at the wall
G5 – A5
This room’s a cage
                G5         G7+  E5  F#5  
I know that something’s got to give now         ( Riff 1 )
E5
Lay awake
E5 – G5
I don’t give a shit
G5 – A5        G5         G7+ E5  F#5
If I even ever wake up in the morning
E5
Down below
E5 – G5
There’s a pile of sin
G5 – A5
Always waiting for a
G5         G7+ E5 F#5
Waiting for a warning


G5      D5
Someone said it’s all right
C5                               G5
Save it now, don’t say it for my sake
G5      D5
Someone said it’s all right
C5                         D5 E5
Faster now, you know I got no brakes, no brakes


( “Riff 3” 2x )


G|--------------------------------------------|
D|-----------5--5--4-----------7b(8)7--5------|   [Baixo(2x)]
A|--7--5--7-----------7--5--7-----------------|
E|--------------------------------------------|


( “Riff 3” 2x )


G5      D5
Someone said it’s all right 
C5                               G5
Save it now, don’t say it for my sake
G5      D5    
Someone said it’s all right 
C5                            G5
Faster now, you know I got no brakes
G5      D5           
Someone said it’s all right 
C5                               G5
Save it now, don’t say it for my sake
G5      D5
Someone said it’s all right
C5                         D5 E5 ( Final )
Faster now, you know I got no brakes, no brakes, no brakes, no brakes.


Final:


E|-------------------------------------------------------------------|
B|-------------------------------------------------------------------|
G|-----------7--7--6-----------9/109--7-----------7--7--6-----------|
D|--9--7--9--5--5--4--9--7--9--7/8 7--5--9--7--9--5--5--4--9--7--9--|
A|--7--5--7-----------7--5--7-------------7--5--7-----------7--5--7--|
E|-------------------------------------------------------------------|





Quer fazer uma correção nesta cifra?







    Comentários (0) Postar um Comentário

    Nenhum comentário encontrado. Seja o primeiro!