Cifra da música: Million Miles Away - Offspring

Esse cifra de Offspring já foi acessado por 501 pessoas.

Comente

Veja também o vídeo da música tocada.


: - Repetir
/  - Slide

Introdução:
|---------------------------|     |-------------------|
|---------------------------|     |-------------------|
|-----------------2---------| 2x  |----------/9-9-9-9-|
|-----4-----------------2-4-|     |-7----7-7-/9-9-9-9-|
|-----------4---------------|     |-7----7-7-/7-7-7-7-|
|-2-2---2-2---2-2---2-2-----|     |-5----5-5----------|

|----------------------------------------------------|
|----------------------------------------------------|
|---------------------------------/7--7-7-7/9--9-9-9-|
|-4---4-4-4/7:---7-7-7/9:---9-9-9-/7--7-7-7/9--9-9-9-|
|-4---4-4-4/7:---7-7-7/9:---9-9-9-/5--5-5-5/7--7-7-7-|
|-2---2-2-2/5:---5-5-5/7:---7-7-7--------------------|

|-------------------------------------------------------------|
|-------------------------------------------------------------|
|-11-11-11-11-11-11-11-11-11-11-11-11-------------9-9-9-9-9-9-| 2x
|-11-11-11-11-11-11-11-11-11-11-11-11-7-7-7-7-7-7-9-9-9-9-9-9-|
|--9--9--9--9--9--9--9--9--9--9--9--9-7-7-7-7-7-7-7-7-7-7-7-7-|
|-------------------------------------5-5-5-5-5-5-------------|


|--------------------------------------------------------|
|--------------------------------------------------------|
|-----------------------------------------/9-9-9-9-9-9-9-|
|-4-4-4-4-4-4-4-4-4-4-4-4-4/7-7-7-7-7-7-7-/9-9-9-9-9-9-9-|
|-4-4-4-4-4-4-4-4-4-4-4-4-4/7-7-7-7-7-7-7-/7-7-7-7-7-7-7-|
|-2-2-2-2-2-2-2-2-2-2-2-2-2/5-5-5-5-5-5-5----------------|
There was a time, looking through myself
Wanting to pretend
If I escaped, I could fill myself
I don't think you can
Been far and wide
But that hole inside
Never really leaves
When I went away, what I really left
Left behind was me

|-----------------------------------------------------|
|-----------------------------------------------------|
|-----------------------------9-9-9-9-9-9-9-9-9-9-9-9-| 2x
|-----------------------------9-9-9-9-9-9-9-9-9-9-9-9-|
|-2--2-2-4--4-4-5--5-5-4--4-4-7-7-7-7-7-7-7-7-7-7-7-7-|
|-----------------------------------------------------|
It's telling me
To be on my way home

Refrão:
|--------------------------------------------------------|
|--------------------------------------------------------|
|-----------------------------------------/9-9-9-9-9-9-9-|
|-4-4-4-4-4-4-4-4-4-4-4-4-4/7-7-7-7-7-7-7-/9-9-9-9-9-9-9-|
|-4-4-4-4-4-4-4-4-4-4-4-4-4/7-7-7-7-7-7-7-/7-7-7-7-7-7-7-|
|-2-2-2-2-2-2-2-2-2-2-2-2-2/5-5-5-5-5-5-5----------------|
Million miles away, million miles away
I can't stay, I can't stay
Million miles away

|-------------------------------------------------------------|
|-------------------------------------------------------------|
|-11-11-11-11-11-11-11-11-11-11-11-11-------------9-9-9-9-9-9-| 2x
|-11-11-11-11-11-11-11-11-11-11-11-11-7-7-7-7-7-7-9-9-9-9-9-9-|
|--9--9--9--9--9--9--9--9--9--9--9--9-7-7-7-7-7-7-7-7-7-7-7-7-|
|-------------------------------------5-5-5-5-5-5-------------|

|--------------------------------------------------------|
|--------------------------------------------------------|
|-----------------------------------------/9-9-9-9-9-9-9-|
|-4-4-4-4-4-4-4-4-4-4-4-4-4/7-7-7-7-7-7-7-/9-9-9-9-9-9-9-|
|-4-4-4-4-4-4-4-4-4-4-4-4-4/7-7-7-7-7-7-7-/7-7-7-7-7-7-7-|
|-2-2-2-2-2-2-2-2-2-2-2-2-2/5-5-5-5-5-5-5----------------|
Each passing day, every passing face
Seems like such a blur
I long to be
Home, silently
Lying next to her
Just to get back, by her side is all
All I need to be
Cause I went away
But what I really left
Left behind was me

|-----------------------------------------------------|
|-----------------------------------------------------|
|-----------------------------9-9-9-9-9-9-9-9-9-9-9-9-| 2x
|-----------------------------9-9-9-9-9-9-9-9-9-9-9-9-|
|-2--2-2-4--4-4-5--5-5-4--4-4-7-7-7-7-7-7-7-7-7-7-7-7-|
|-----------------------------------------------------|
I need to be 
Getting on my way home

(Refrão)

Solo:
|--------------------------------------------------------------|
|--------------------------------------------------------------|
|-16^-16-14-11--16^-16-14-16-16--16^-16-14-11--16^-16-14-16-16-|
|--------------------------------------------------------------|
|--------------------------------------------------------------|
|--------------------------------------------------------------|

|-----------------------------------------------------------------|
|-----------------------------------------------------------------|
|-14-11-11-11-9-11-14-14-14-14-11-11-11-9-11-14-14-14-14-11-11-11-|
|-----------------------------------------------------------------|
|-----------------------------------------------------------------|
|-----------------------------------------------------------------|

|---------------------------------------|
|---------------------------------------|
|-9-11-11-14-14-14--10^--12^--10^--8^---|
|---------------------------------------|
|---------------------------------------|
|---------------------------------------|

|-----------------------------------------------------|
|-----------------------------------------------------|
|-----------------------------9-9-9-9-9-9-9-9-9-9-9-9-| 2x
|-----------------------------9-9-9-9-9-9-9-9-9-9-9-9-|
|-2--2-2-4--4-4-5--5-5-4--4-4-7-7-7-7-7-7-7-7-7-7-7-7-|
|-----------------------------------------------------|
It's telling me
To be on my way home

(Refrão 8x)



Quer fazer uma correção nesta cifra?







    Comentários (0) Postar um Comentário

    Nenhum comentário encontrado. Seja o primeiro!