Cifra da música: Living In Chaos - Offspring

Esse cifra de Offspring já foi acessado por 502 pessoas.

Comente

Tom: Eb

Intro: 

E|---------------------------------------------------------|
B|---------------------------------------------------------|
G|---------------------------------------------------------|   [2x]     
D|-------6-6-----------3-3-----------6-6-------------------|
A|--6/8-------6-6-6/8-------6-6-6/8-------8-6/8-8-8-8/9-8--|
E|---------------------------------------------------------|

|____________________Guitarra 1____________________________|
|                                                          |

E|---------------------------------------------------------|
B|---------------------------------------------------------|
G|-8/10--10--8--10--8—-8/10--10--8--10--8—-8/10--10--8—-10-|
D|-8/10--10--8--10--8—-8/10--10--8--10--8—-8/10--10--8—-10-|
A|-6/8---8---6--8—--6--6/8---8---6--8---6—-6/8---8---6--8--|
E|---------------------------------------------------------|


E|-----------------------------|
B|-----------------------------|
G|--8—-8/10—-10--10—10/11--10--|   [2x]
D|--8—-8/10--10--10—10/11--10--|
A|--6—-6/8---8---8—--8/9---8---|
E|-----------------------------|

|__________________________________________________________|
|                                                          |

E|---------------------------------------------------------|
B|---------------------------------------------------------|
G|--6--6--6--6---6--6--6--6---8--8--8--8---8--8--8--8---10-|   [1x]
D|--6--6--6--6---6--6--6--6---8--8--8--8---8--8--8--8---10-|
A|--4—-4--4--4---4--4--4--4---6--6--6--6---6—-6—-6—-6---8--|
E|---------------------------------------------------------|

|____________________Guitarra 2 ___________________________|
|                                                          |

Verso 1:

Somewhere the time was right,
Could have been gone in ten 
This world is hard to fight, hitting 
You once, hit it again
To know the way it feels, everyone
Gets knocked down
When you get up it’s real, by taking
It back, turn it around

E|--8-9-8--------------|
B|----------9-8--------|
G|---------------9-10--|   [4x]
D|---------------------|
A|---------------------|
E|---------------------|

|_____Guitarra 1_______|
|                      |


E|-----------------------------------------------------------|
B|-----------------------------------------------------------|
G|--5--5/10--10----13—-1312--12--12--10--10—---5--5/10—-10--|
D|--—--------------------------------------------------------|
A|--3--3/8---8-----11—-1110--10--10--8---8-----3—-3/8---8---|
E|-----------------------------------------------------------|

|_________________________Guitarra 2_________________________|
|                                                            | 

Refrão:

Get on it, up on it
Get on it – Wouldn’t Wanna be you
Get on it, out on it
Get on it – No one’s gonna free you
You know, when you’re keeping it slow
No matter where you wanna go – Wouldn’t wanna be you
Get on it, up on it
It’s on – we’re living in chaos


 (You know, when you’re [...] we’re living in chaos)
E|---------------------------------------------------------|
B|---------------------------------------------------------|
G|---------------------------------------------------------|   [2x]
D|-------6-6-----------3-3-----------6-6-------------------|
A|--6/8-------6-6-6/8-------6-6-6/8-------8-6/8-8-8-8/9-8--|
E|---------------------------------------------------------|

|_____________________Guitarra 1___________________________|
|                                                          |

E|-----------------------------------------------------------|
B|-----------------------------------------------------------|
G|-----------------------------------------------------------|
D|--8/10--10--8--10--8—-8/10--10--8--10—-8--8/10--10--8--10--|
A|--8/10--10--8--10--8—-8/10--10--8--10--8—-8/10--10--8--10--|
E|--6/8---8---6--8—--6--6/8---8---6--8---6—-6/8---8---6--8---|


E|------------------------------|
B|------------------------------|
G|--8--8/10--10--10--10/11--10--|   [2x]
D|--8--8/10--10--10--10/11--10--|
A|--6—-6/8---8---8—---8/9---8---|
E|------------------------------|

Verso 2:

Somewhere along the line,
Things get chipped away
This place keeps going down,
Gets a little worse every day
I see hate and greed, this world’s a 
Messed up town
Embrace the pain and see, by taking
It back, you turn it around

E|--8-9-8-------------|
B|---------9-8--------|
G|--------------9-10--|   [4x]
D|--------------------|
A|--------------------|
E|--------------------|

|_____Guitarra 1______|
|                     |  

E|------------------------------------------------------|
B|------------------------------------------------------|
G|--5—-5/10-10--13—-1312--12--12--10--10--5—-5/10--10--|
D|------------------------------------------------------|
A|--3—-3/8--8---11—-1110--10--10--8---8---3—-3/8---8---|
E|------------------------------------------------------|

|______________________Guitarra 2_______________________|   
|                                                       |

(Refrão)

Ponte: 

E|-----------------------|
B|-----------------------|
G|------6----------------|   [2x]
D|--8---6---6---4---4-6--|
A|--8---4---6---4---4-6--|
E|--6---4---4---2---2-4--|


E|-----------------------------------------------------------------|
B|-----------------------------------------------------------------|
G|--8/10--10--8--10--8—-8/10--10--8--10--8—-8/10--10--8--10--------| [2x]
D|--8/10--10--8--10--8—-8/10--10--8--10--8—-8/10--10--8--10--4--6--|
A|--6/8---8---6--8---6—-6/8---8---6--8---6—-6/8---8---6—-8---4—-6--|
E|-----------------------------------------------------------2—-4--|

(Intro da Guitarra 1) [1x]

Verso 1:

Somewhere the time was right,
Could have been gone in ten 
This world is hard to fight, hitting 
You once, hit it again
To know the way it feels, everyone
Gets knocked down
When you get up it’s real

E|--8-9-8--------------|            |--8-9-8-----|
B|---------9-8---------|            |---------9--|
G|--------------9--10--| [3x]       |------------|  [4a vez]
D|---------------------|            |------------|
A|---------------------|            |------------|
E|---------------------|            |------------|

|__________________Guitarra 1____________________|
|                                                |

E|-------------------------------------------------------|
B|-------------------------------------------------------|
G|--5—-5/10--10--13—-1312--12--12--10--10--5—-5/10--10--|
D|-------------------------------------------------------|
A|--3—-3/8---8---11—-1110--10--10--8---8---3—-3/8---8---|
E|-------------------------------------------------------|


E|-----------------------------|
B|-----------------------------|
G|-----------------------------|
D|-------6-6-------------------|
A|--6/8-------8-6/8-8-8-8/9-8--|
E|-----------------------------|


(Ponte: Tocar a 1a parte 2x e a 2a parte 3x.)

E|------------------------------------------------------------------|
B|------------------------------------------------------------------|
G|--8/10--10--8--10--8--8/10--10--8--10--8--8/10-10-10-10-10-10-10--|
D|--8/10--10--8--10--8—-8/10--10--8--10--8--8/10-10-10-10-10-10-10--|
A|--6/8---8---6--8---6—-6/8---8---6--8---6—-6/8--8--8--8--8—-8—-8---|
E|------------------------------------------------------------------|
  (4a vez da Ponte e final.)



Quer fazer uma correção nesta cifra?







    Comentários (0) Postar um Comentário

    Nenhum comentário encontrado. Seja o primeiro!