Cifra da música: Leave It Behind - Offspring

Esse cifra de Offspring já foi acessado por 455 pessoas.

Comente

Veja também o vídeo da música tocada.


h - hammer on
: - let ring 
pm - palm mute 
x - scratch
* - repeat 7 or 8 times


intro - 2 guitars 

guitar 1

|----0-2-2h3-2-0----0-2-2h3-2-0----0-2-2h3-2-0----0-2-2h3-2-0--|
|--------------------------------------------------------------|
|--------------------------------------------------------------|
|--------------------------------------------------------------|
|--------------------------------------------------------------|
|-0:-------------0:-------------0:-------------0:--------------|
> > >
wait till guitar 1 plays the piece before the second arrow,
then play on

guitar 2

| |------------------------------|
| |------------------------------|
| wait |---9----9--9-9---9----9--9-9--|
| |-2-9-9--9--9-9-2-9-9--9--9-9--|
| |-2-7-9--7--7-7-2-7-9--7--7-7--|
| |-0---7---------0---7----------|

verse

pm
|---------------------------------------------------------------------------|
|---------------------------------------------------------------------------|
|-9x-9x-9x-9x-7x-7x-9x-9x--9x-9x-9x-9x-7x-7x--------9x-9x-9x-9x-7x-7x-9x-9x-|
|-9x-9x-9x-9x-7x-7x-9x-9x--9x-9x-9x-9x-7x-7x-9x-9x--9x-9x-9x-9x-7x-7x-9x-9x-|
|-7x-7x-7x-7x-5x-5x-7x-7x--7x-7x-7x-7x-5x-5x-9x-9x--7x-7x-7x-7x-5x-5x-7x-7x-|
|--------------------------------------------7x-7x--------------------------|

chorus

|------------------------|
|------------------------|
|-5-----7-9*--5-----7-9--|
|-5-3-5-7-9*--5-3-5-7-9--|
|-3-3-5-5-7*--3-3-5-5-7--|
|---1-3---------1-3------|

bridge

|-------------------------------------------------|
|-------------------------------------------------|
|-------------7-7-7-7-7-7-9-9-9-9-9-9-5-5-5-5-5-5-|
|-5-5-5-5-5-5-7-7-7-7-7-7-9-9-9-9-9-9-5-5-5-5-5-5-|
|-5-5-5-5-5-5-5-5-5-5-5-5-7-7-7-7-7-7-3-3-3-3-3-3-|
|-3-3-3-3-3-3-------------------------------------|

|-------------------------------------------------|
|-------------------------------------------------|
|-------------7-7-7-7-7-7-9-9-9-9-9-9-5-5-5-7-7-7-|
|-5-5-5-5-5-5-7-7-7-7-7-7-9-9-9-9-9-9-5-5-5-7-7-7-|
|-5-5-5-5-5-5-5-5-5-5-5-5-7-7-7-7-7-7-3-3-3-5-5-5-|
|-3-3-3-3-3-3-------------------------------------|

end note

|-----|
|-----|
|--9--|
|--9--|
|--7--|
|-----|  

      Lyrics: Leave it behind
Rage burns can't push it aside now
Can't forgive this grudge is alive now
All the rage eats you up inside
Can you leave it behind
What a surprise --
You're fucked with again Yeah
It's a way of life you need to get over
All the rage just eats you alive
Can you leave it behind
I don't know where it'll end
The sun has set
And I can't be friends
I don't know if I can forgive
The day is long
But you were so dead wrong 
 
   Beleza, essa música é muito loca, ofereço essa pro Kaueka, ele ama Offspring!!



Quer fazer uma correção nesta cifra?







    Comentários (0) Postar um Comentário

    Nenhum comentário encontrado. Seja o primeiro!