Cifra da música: Get It Right - Offspring

Esse cifra de Offspring já foi acessado por 556 pessoas.

Comente

Veja também o vídeo da música tocada.


For the beginning, just blast a low F chord and do some pickscrape

(Intro Riff, used at several places in the song)
|--------------------------------------------------------------|
|--------------------------------------------------------------|
|-10-10-10-10-12-13-12---8-8-8-8-12-13-12---6-6-6-8-12-13-12---|
|-10-10-10-10-12-13-12---8-8-8-8-12-13-12---6-6-6-8-12-13-12---|
|--8--8--8--8-10-11-10---6-6-6-6-10-11-10---4-4-4-6-10-11-10---|
|--------------------------------------------------------------|

Chords Definition:

  F(high) D#  C  C#  F  A(high) A#(high)
|----------------------------------------|
|----------------------------------------|
|-10-------8------6--3--12------13-------|
|-10-------8--10--6--3--12------13-------|
|--8-------6--10--4--1--10------11-------|
|--------------8-------------------------|

* 


Quer fazer uma correção nesta cifra?







    Comentários (0) Postar um Comentário

    Nenhum comentário encontrado. Seja o primeiro!