Cifra da música: Dammit, I Changed Again - Offspring

Esse cifra de Offspring já foi acessado por 446 pessoas.

Comente

Veja também o vídeo da música tocada.


INTRO:     
Fii   (Baixo)    
e|----------------------------------------------|
B|----------------------------------------------|
G|----------------------------------------------|
D|--------6-5-6-------6-5-6-------6-5-6-8-6-5---|
A|----8-----------4-----------6---------------6-|
E|----------------------------------------------|
   
A intro pode ser tocada assim, ou nos acordes:
Fii    Gii# Gii Gii#                      
C#     Gii# Gii Gii#
D#     Gii# Gii Gii# Aii# Gii# Gii D#

(Baixo)
Hey, come inside
While I stand here acting bold
Can't stand to feel this way
Clear out the cobwebs in my soul 

D#     Fii
REFRÃO:
          Fii           
This time I turn around
C# 
And things have changed
G#          D# 
Now I don't feel the same 
Fii
Start a fight
C#
I can't defend
G#
One more time
D#
Dammit, I changed again 

(INTRO)

(Baixo)
Now I don't see
Things the way I did before
Can't stand to feel this way
Things important yesterday
Don't matter anymore

F                        C# 
It doesn't make any sense
            G#                D#
To feel so different day to day
(Can't stand to feel this way)
F              C#                 G#       
When nothing's changed except for me 

(REFRÃO)  (REFRÃO TOCANDO A INTRO)

Solo:  3x  1X COM BASE (F C# G# D#)  
e|------------------------------------------------------------|
B|------------------------------------------------------------|
G|------------------------------------------------------------|
D|--10---10---10---11---11---11---10---10---10---8---8---8----|
A|-----8----8----8----8----8----8----8----8----8---6---6---6--|
E|------------------------------------------------------------|

(REFRÃO)
(REFRÃO TOCANDO INTRO)
(INTRO)   Fii

Acordes:
   
    Fii  Gii   C   D  Aii   G   F
e|----------------------------------|
B|----------------------------------|
G|--10----12---5---7---14-----------|
D|--10----12---5---7---14---5---3---|  
A|---8----10---3---5---12---5---3---|
E|--------------------------3---1---|



Quer fazer uma correção nesta cifra?







    Comentários (0) Postar um Comentário

    Nenhum comentário encontrado. Seja o primeiro!