Cifra da música: You Know You're Right - Nirvana

Esse cifra de Nirvana já foi acessado por 1169 pessoas.

Comente

A música You Know You're Right fez muito sucesso quando foi gravada por Nirvana. Quer conhecer a letra dela? Veja a letra de You Know You're Right e cante.

Veja também o vídeo da música tocada.


Kurt Cobain usava o pedal Turbo Distortion da Boss, mas nessa musica 
ele usa o efeito Rock In.

Esse, agora, Clássico do Nirvana começa com harmônicos naturais na 
casa numero 7. Você deve apenas encostar o dedo na aste da casa 7 e
tocar as cordas soltas:


e|-------------------------------------------------------------|
b|-------------------0---------------0----------------0--------|
g|----------0----0----------0----0----------0----0-------------|
d|-------0----0----------0----0----------0----0----------------|
a|----0---------------0----------------0-----------------------|
E|-------------------------------------------------------------|


Depois começa o dedilhado inicial:

e|--------------------------------------------------|
b|--------------------------------------------------|
g|---------------------(0)-----------------(0)------|
d|-------------------4-------------------4----------|
a|--------------------------------------(4)---------|
E|---0/2--2--2--2---------0/2--2--2-----------------|

'I Will never bother you...'


       D5            E5
e|------------------------------|
b|------------------------------|
g|------------------------------|
d|---777777---999999------------|
a|---555555---777777------------|
E|---000000---000000------------|

'Never speak a word again...' 



e|-----------------------------------------------------------------------------------------------|
b|-----------------------------------------------------------------------------------------------|
g|----------------------3-----------------(0)----------------------------------0-----------------|
d|-------------------4---------------------4------------------4----------------4-----------------|
a|----------------------------------------(4)---------------------------------(4)----------------|
E|---0/2--2--2--2-----------0/2--2--2-----------0/2--2--2--2-------0/2--2--2---------------------|



Segue o dedilhado acima até começar o próximo verso:

e|---------------------------------------------------|
b|------7--------7-----------9---------9-------------|
g|---------7---------------------9-------------------|
d|------------7------7--------------9-----9----------|
a|---------------------------------------------------|
E|--5-------------------5/7--------------------------|

“Things have never been so swell 
I have never failed to feel........”



agora é a parte q o kurt grita “paain....”
   
   F        F#
e|-----------------------|
b|-----------------------|
g|-----------------------|
d|--3/4--4-44-44444------|   3x
a|--3/4--4-44-44444------|
E|--1/2--2-00-22222------|


       D5            E5
e|--------------------------|
b|--------------------------|
g|--------------------------|
d|---777777---999999--------|
a|---555555---777777--------|
E|---000000---000000--------|


Agora vem as microfonias e bends seguindo do kurt falando “you know 
you’re right....”

e|-------14--14—14-(...)--16—16b--14--16--14----------|
b|----------------------------------------------------|
g|----------------------------------------------------|
d|----------------------------------------------------|
a|----------------------------------------------------|
E|---8b-----------------------------------------------|


Agora volta para os versos...

'I'm so warm and calm inside 
I no longer have to hide 
Let’s talk about someone else 
Steaming soup against her mouth'


Enquanto o kurt canta esse verso acima, o krist fica tocando uma base
 no baxo, improvisado pra guitarra fica assim:

e|-------------------------------------------------------|
b|-------------------------------------------------------|
g|-------------------------------------------------------|
d|-------------------------------------------------------|
a|-------------------------------------------------------|
E|---0/2--2—2-----0/2--2----0/2--2--2----0/2--2—(...)----|


depois entra essa parte:

e|------------------------------------------------|
b|------7--------7-----------9---------9----------|
g|---------7---------------------9----------------|
d|------------7------7--------------9-----9-------|
a|------------------------------------------------|
E|--5-------------------5/7-----------------------|

'Nothing really bothers her 
She just wants to love herself'


Agora, novamente o kurt canta um verso com o dedilhado do começo da 
musica de fundo:

e|-----------------------------------------------|
b|-----------------------------------------------|
g|---------------------(0)-----------------(0)---|
d|-------------------4-------------------4-------|
a|--------------------------------------(4)------|
E|---0/2--2--2--2---------0/2--2--2--------------|

'I will move away from here 
You wont be afraid of fear 
No thought was put into this 
I always knew to come like this'



Agora vem esses acordes:

       D5            E5
e|------------------------------|
b|------------------------------|
g|------------------------------|
d|---777777---999999------------|
a|---555555---777777------------|
E|---000000---000000------------|

Com essas frases gritadas pelo kurt:

'Things have never been so swell 
I have never failed to feel'


e|-----------------------|
b|-----------------------|
g|-----------------------|
d|--3/4--4-44-44444------|   8x
a|--3/4--4-44-44444------|
E|--1/2--2-00-22222------|

'Pain...'

       D5            E5
e|------------------------------|
b|------------------------------|
g|------------------------------|      
d|---777777---999999------------|
a|---555555---777777------------|
E|---000000---000000------------|

'..Paaaaain.... You know you’re right.....'



Depois da gritaria o kurt fica solando e falando you know you’re right,
 segue o solo:

e|-----------------------------------------------------------
b|-----------------------------------------------------------
g|---------------------7b--10b—10~---7--8---9b---------------
d|--3/44444444--------------------------------------8--7-----
a|--3/44444444-----------------------------------------------
E|--1/20022222-----------------------------------------------


------------------------------------------------------------
------------------------------------------------------------
----------------10b---------------9b----------------9b------
--8--7--8--7--------8--7--8--7-------8--7--8--7-------------
------------------------------------------------------------
------------------------------------------------------------

------------------------------------------------------------
------------------------------------------------------------
-----------------9b---------------9b---------------9b-------
---8--7--8--7-------8--7--8--7------8--7--8--7--------------
------------------------------------------------------------
------------------------------------------------------------

---------------------------------------------12~---9-------|
---------------------------------------11b-----------------|
---------------9b----------------9b------------------------|
-8--7--8--7-------8--7--8--7-------------------------------|
-----------------------------------------------------------|
-----------------------------------------------------------|

A última nota do solo, na corda mizinha casa numero 9, é uma 
improvisação para uma microfonia, é só chegar perto do amp com as 
cordas soltas 

Agora o kurt grita sozinho “paaain” com a bateria o acompanhando....
depois é os harmônicos do começo da musica novamente...

e|-------------------------------------------------------------|
b|-------------------0---------------0----------------0--------|
g|----------0----0----------0----0----------0----0-------------|
d|-------0----0----------0----0----------0----0----------------|
a|----0---------------0----------------0-----------------------|
E|-------------------------------------------------------------|
pss: lembre-se de colocar o dedo sobre a aste da casa 7, para poder 
fazer os harmônicos naturais

depois dos harmônicos fica só a bateria e acaba!


***************************************************************************************

                                 You Know You're Right
                                     (Kurt Cobain)


I will never bother you 
I will never promise to 
I will never follow you 
I will never bother you 

Never speak a word again 
I will crawl away for good 

I will move away from here 
You wont be afraid of fear 
No thought was put in to this 
I always knew it would come to this 

Things have never been so swell 
I have never failed to feel 
Pain [3x] 

You Know your Right [3x] 

I'm so warm and calm inside 
I no longer have to hide 
Let’s talk about someone else 
Steaming soup against her mouth 
Nothing really bothers her 
She just wants to love herself 

I will move away from here 
You wont be afraid of fear 
No thought was put into this 
I always knew to come like this 

Things have never been so swell 
I have never failed to feel 
Pain [5x] 

You know Your Right [17x]






Quer fazer uma correção nesta cifra?







    Comentários (0) Postar um Comentário

    Nenhum comentário encontrado. Seja o primeiro!