Cifra da música: Token Eastern Song - Nirvana

Esse cifra de Nirvana já foi acessado por 559 pessoas.

Comente

A música Token Eastern Song fez muito sucesso quando foi gravada por Nirvana. Quer conhecer a letra dela? Veja a letra de Token Eastern Song e cante.

Veja também o vídeo da música tocada.


Essa é outra musica gravada num show antigão da banda, é impossível 
você tocar sem ouvir ela, porque o kurt muda muito o ritmo dos acordes.
 

          F        Em               F     Em
|-----------00---------00---------|
|-----------00---------00---------|
|---------------------------------|
|-3---333-2------333-2------------|
|-3---333-2------333-2------------|
|-1---111-0------111-0------------|

repete até entra o refrão:

   F#   F     F#    F    F#   F 
|-----------------------------------|
|-----------------------------------|
|-----------------------------------|
|--444-3-33/4-444-3-33/4-444-3-33---|
|--444-3-33/4-444-3-33/4-444-3-33---|
|--222-1-11/2-222-1-11/2-222-1-11---|

A musica baseia-se nesses acordes acima, do verso e do refrão, 
depois vem um solo cheio de bends e microfonias, ai abaixo tem as 
principais notas, a partir delas vc pode improvisar, mais é 
impossível tira exatamente igual, até pq é uma gravação ao vivo. 


|------------------------------------------------------
|------------------------------------------------------
|------------------------------------------------------
|----5-7-5----------5-7-5-------5-7-5-7-7-8b-8b-8b----- 2X
|--7-------7-5-7--7-------7-5-7------------------------
|------------------------------------------------------

-------------------------------------------------------------
-------------------------------8-8-10b-8-10-8-10b-8-10-8-10b-
-----7-9b~-----7-9b~-----7-9b~-------------------------------
-7-8-------7-8-------7-8-------------------------------------
-------------------------------------------------------------
-------------------------------------------------------------

--------10b--------10b--------10b------------|
-8-10-8-10b-8-10-8-10b-8-10-8-10b-8-10-8-8---|
---------------------------------------------|
---------------------------------------------|
---------------------------------------------|
---------------------------------------------|


Token Eastern Song
*k. cobain

I'm not gonna let you through
You may decide it's not that good
I'm not gonna let you free
You may decide on stopping me
I'm not gonna let you through
You may decide it's nothing new
I'm not gonna let you through
You may decide there's nothing there

Hold it in your gut 

I'm not gonna let you through
You may decide it's nothing new
I'm not gonna let you leave
You may decide it's not for me
I'm not gonna let you through
You may decide it's nothing new
I'm not gonna let you leave
You may decide on stopping me

Hold it in your gut
Gone 



Quer fazer uma correção nesta cifra?







    Comentários (0) Postar um Comentário

    Nenhum comentário encontrado. Seja o primeiro!