Cifra da música: In Bloom - Nirvana

Esse cifra de Nirvana já foi acessado por 1650 pessoas.

Comente

A música In Bloom fez muito sucesso quando foi gravada por Nirvana. Quer conhecer a letra dela? Veja a letra de In Bloom e cante.

Veja também o vídeo da música tocada.


Intro:

   Bb      G    F       G#            Bb      G    F       G#  
E|-----------------------------------------------------------
B|-----------------------------------------------------------
G|-3--3-3-----------------------------3--3-3-----------------
D|-3--3-3--5----3--3-3--6-------------3--3-3--5----3--3-3--6-  (drum fill)
A|-1--1-1--5----3--3-3--6-------------1--1-1--5----3--3-3--6-
E|---------3----1--1-1--4---------------------3----1--1-1--4-

   Bb          F#             Eb           B         A
E|--------------------------------------------------------
B|---------------------------/8-8---8--------------------
G|---------------------------/8-8---8--x-----------------  (x2)
D|-8-8--8-x--4-4-4-4-4--x--/8-8---8--x--9-9-9-9---7--7-
A|-8-8--8-x--4-4-4-4-4--x--/6-6---6--x--9-9-9-9---7--7-
E|-6-6--6-x--2-2-2-2-2--x--/-------------7-7-7-7---5--5-


Sell the kids for food
Weather changes moods

E|-1---1-1-xx2---2-2-xx3---3-3----------
B|-3---3-3-xx2---2-2-xx4---4-4-xx4---2--
G|-3---3-3-xx3---3-3-xx3---3-3-xx4---2--
D|-3---3-3-xx4---4-4-xx1---1-1-xx4---2--
A|--------------------------------------
E|--------------------------------------
   Bb        F#        Eb        B   A
   Spring is here    a-gain
   Re  -  product -ive glands    AAANNNDD


Chorus:

B    A       Bb       G             Bb             G
AAAAANNNDDDD he's the one who likes all our pretty songs and he
Bb            G             Bb                 G
likes to sing along, and he likes to shoot his guns,
       C                  Eb        C                  Eb
but he don't know what it means...  Don't know what it means and I say...


              
       com muita distorção

Solo:  E|------------------------------------------------------------------------
       B|--18b~~~~~~~~~~~~~~~~~~~~~15b~~~~~~~~~~-----------------------------------
       G|------------------------------------------------------------------------
    
       E|-------------------------------------------------------------------------
       B|-------------------------------------------------------------------------
       D|--11-----13--11--13b--13--11------11--13--13b--11--13--11--13-13--11--13-
       A|------------------------------11-----------------------------------------

     
       E|-------------------------------------------------------------------------
       B|---13~~~~~~~~~~~~~~~~----------------------------------------------------
       G|----------------------10---12-10-12-13-12-13-15-13-15b-15b------------------


       E|-------------------------------------------------------------------------
       B|--13~~~~~~~~~~~~---------------------------------------------------------
       G|----------------------12-12----12----11----10----------------------------
       D|-------------------11-------11----11----11-------------------------------
       A|-------------------------------------------------------------------------


    



We can have some more
Nature is a whore
Bruises on the fruit
Tender age in bloom

_____________________________________________






Quer fazer uma correção nesta cifra?







    Comentários (0) Postar um Comentário

    Nenhum comentário encontrado. Seja o primeiro!