Cifra da música: All Apologies - Nirvana

Esse cifra de Nirvana já foi acessado por 1589 pessoas.

Comente

A música All Apologies fez muito sucesso quando foi gravada por Nirvana. Quer conhecer a letra dela? Veja a letra de All Apologies e cante.

Veja também o vídeo da música tocada.


Primeiramente afine a corda mais grossa em Ré (observação, quando for
fazer o slide da casa 9 à casa 12, comece na casa 10, não coloquei na 
tablatura por que é tão rápido que eu diria que era imperceptivel, mas 
ao fazer direto da casa 9 fica meio estranho)

Introdução (x2):

E|------------------------------------------|-----------------------------------------|
B|------------------------------------------|-----------------------------------------|
G|------------------------------------------|--------------------------------11-11-9--|
D|--------------------------------12-12/10-9|---------------------------------------12|
A|--9-10-9/12-12/10-9-10----9-10-9----------|----9-10-9/12-12/10-9----9-10-9----------|
D|-0---------------------0------------------|-0---------------------0-----------------|

(x4)
E|------------------------------------------|-----------------------------------------|
B|------------------------------------------|-----------------------------------------|
G|------------------------------------------|-------------------------------11-11-9---|
D|-------------------------------12-12/10-9-|---------------------------------------12|
A|--9-10-9/12-12/10-9-----9-10-9------------|----9-10-9/12-12/10-9----9-10-9----------|
D|-0---------------------0------------------|-0---------------------0-----------------|
What else should I be, all apologies
What else should I say, everyone is gay
What else could I write, I don't have the right
What else should I be, all apologies

Refrão:
                                G
E|-------------------------------------------------------------|
B|-------------------------------------------------------------|
G|-------------------------------------------------------------|
D|-5-5-5-5-5-5-5-5-5-5-5-5-5-5-5-5-5-5-5-5-5-5-5-5-5-5-5-5-5-5-|
A|-5-5-5-5-5-5-5-5-5-5-5-5-5-5-5-5-5-5-5-5-5-5-5-5-5-5-5-5-5-5-|
D|-5-5-5-5-5-5-5-5-5-5-5-5-5-5-5-5-5-5-5-5-5-5-5-5-5-5-5-5-5-5-|
In the sun, in the sun I feel as one, in the sun, in the sun
       A
E|---------|
B|---------|
G|--2---2--|
D|--2---2--|
A|--0---0--|
D|---------|
Married, buried

(x4)
E|------------------------------------------|-----------------------------------------|
B|------------------------------------------|-----------------------------------------|
G|------------------------------------------|-------------------------------11-11-9---|
D|-------------------------------12-12/10-9-|---------------------------------------12|
A|--9-10-9/12-12/10-9------9-10-9-----------|----9-10-9/12-12/10-9----9-10-9----------|
D|-0---------------------0------------------|-0---------------------0-----------------|
I wish I was like you, easily amused
Find my nest of salt, everything is my fault
I'll take all the blame, aqua seafoam shame
Sunburn with freezeburn, choking on the ashes of her enemy

Refrão

       A
E|---------|
B|---------|
G|--2---2--|
D|--2---2--|
A|--0---0--|
D|---------|
Married, buried, yeah, yeah, yeah, yeah
 All in all is all we all are...

quaisquer dúvidas, mandem e-mail para [email protected]




Quer fazer uma correção nesta cifra?







    Comentários (0) Postar um Comentário

    Nenhum comentário encontrado. Seja o primeiro!