Cifra da música: Come as You Are - Nirvana

Esse cifra de Nirvana já foi acessado por 1996 pessoas.

Comente

A música Come as You Are fez muito sucesso quando foi gravada por Nirvana. Quer conhecer a letra dela? Veja a letra de Come as You Are e cante.

Veja também o vídeo da música tocada.


Introdução:
A|------------0---0------------2------2-| (x4)
E|-0--0--1--2---2---2--2--1--0----0-----|

Come as you are
As you were, as I want you to be
As a friend
As a friend, as an old enemy
Take your time
Hurry up, the choice is your, don't be late
Take a rest
As a friend, as an old...

F#   A  F#   A  F#   A  F#   A
Memory, memory, memory, memory

A|------------0---0------------2------2-| (x4)
E|-0--0--1--2---2---2--2--1--0----0-----|
Come doused in mud
Soaked in bleach, as I want you to be
As a trend
As a friend, as an old...

F#   A  F#   A  F#   A  F#   A
Memory, memory, memory, memory

Bm   D            Bm                D
And I swear that I don't have a gun
            Bm         D
No, I don't have a gun
            Bm         D
No, I don't have a gun

Solo:
A|------------0---0------------2------2-| (x2)
E|-0--0--1--2---2---2--2--1--0----0-----|

B|-----------------------------------------------| (x4)
G|--6~-9-116-6~-9-116-6~-9-11-11b-11-11~--9--6-|

F#    A  F#   A  F#   A  F#   A
Oh yeah, memory, memory, memory

Bm   D            Bm                D
And I swear that I don't have a gun
            Bm         D
No, I don't have a gun
            Bm         D
No, I don't have a gun
            Bm         D
No, I don't have a gun
            Bm         D
No, I don't have a gun

A|------------0---0------------2------2-| (x2)
E|-0--0--1--2---2---2--2--1--0----0-----|             
Memory
Memory

F# A






Quer fazer uma correção nesta cifra?







    Comentários (0) Postar um Comentário

    Nenhum comentário encontrado. Seja o primeiro!