Cifra da música: About a Girl - Nirvana

Esse cifra de Nirvana já foi acessado por 1655 pessoas.

Comente

A música About a Girl fez muito sucesso quando foi gravada por Nirvana. Quer conhecer a letra dela? Veja a letra de About a Girl e cante.

Veja também o vídeo da música tocada.


Introdução:
(Em G) x8

Em G      Em   G
I need an easy friend
Em   G      Em      G
I do... with a earto lend
Em   G         Em       G
I do... think you fit this shoe
Em   G        Em     G
I do... won´t you have a clue

Refrão:
C#5       G#5       F#5
  I'll take advantage while
C#5         G#5    F#5
  You hang me out to dry
Em            G       A     C     Em    G
  But I can't see you every night free

Em  G  Em  G
I do

Em   G        Em     G
I'm standing in your line
Em   G        Em       G
I do... hope you have the time
Em   G      Em      G
I do... pick up number too
Em   G      Em       G
I do... keep a date with you

Refrão

Em G (x4)

Solo (x4):
e|---------------------------------|    ------------------------------------|
B|---------------------------------|    ------------------------------------|
G|-----------------7-9-9-----------|    -------------7-9-7-9-7-9------------|
D|-------5-7-9-9-------------------|3x  -------5-7-9------------------------|
A|---7-7---------------------------|    ---7-7------------------------------|
E|---------------------------------|    ------------------------------------|

(C#5 G#5 F#5) x2
(Em A C) x1
(Em G) x4

Repete: Primeira Estrofe

C#5       G#5       F#5
  I'll take advantage while
C#5         G#5    F#5
  You hang me out to dry
Em            G       A     C
  But I can't see you every night...
Em           G       A     C        Em   G
  No I can't see you every night... Free
Em  G  Em  G  Em  G  Em  G  Em  G  Em  G    Em
I do,         I do,         I do,      I do

Baixo:

G|-0--0--3--3--3-3-3-3-3--0--0--3--3--3--3--3--3--3-0--0
D|------------------------------------------------------
A|------------------------------------------------------
E|------------------------------------------------------ ...

G|-------4--4----2--2--------4--4----2--2---------------
D|--4--4----------------4--4----------------------------
A|------------------------------------------------------
E|------------------------------------------------------

G|--0--0--0---------------------------------------------
D|-----------0--0--3--3--3------------------------------
A|------------------------------------------------------
E|------------------------------------------------------

Fica assim na musica inteira, sempre na mesma ordem mas preste atencão
na hora de mudar o ritmo





 



Quer fazer uma correção nesta cifra?







    Comentários (0) Postar um Comentário

    Nenhum comentário encontrado. Seja o primeiro!