Cifra da música: Heart-Shaped Box - Nirvana

Esse cifra de Nirvana já foi acessado por 1916 pessoas.

Comente

A música Heart-Shaped Box fez muito sucesso quando foi gravada por Nirvana. Quer conhecer a letra dela? Veja a letra de Heart-Shaped Box e cante.

Veja também o vídeo da música tocada.


Versão 1:
---------

Afinação: e B G D A D
Introdução:
      A5       F5       D5          A5        F5    D         D7
G |-----2-----------------------------2-----------------------------|
D |---2--2------3--------0--0-------2--2-------3------/4-4--4-----0-|
A |-0---------3--3-----0--0--0----0----------3--3----------0--3-3---|
D |---------3--------0---------------------3--------0---------------|

      A5       F5       D5          A5        F5    D         D7
G |-----2-----------------------------2-----------------------------| (x4)
D |---2--2------3--------0--0-------2--2-------3------/4-4--4-----0-|
A |-0---------3--3-----0--0--0----0----------3--3----------0--3-3---|
D |---------3--------0---------------------3--------0---------------|
She eyes me like a Pisces when I am weak
I've been locked inside your Heart-Shaped box for weeks
I was drawn into your magnet tar pit trap
I wish I could eat your cancer when you turn back

Refrão (x3):
    A5       F5            D5
G |-2-2-4b-|-----4b-|-4-4---4-----4b-| (x2)
D |-2-2----|-3-3----|-----3---2-2----|
A |-0-0----|-3-3----|----------------|
D |--------|-3-3----|----------------|
Hey, Wait, I've got a new complaint
Forever in debt to your priceless advice

           F5                  D7
D |-3-3-3-3-3-3-3-3-|-/4-4--4-----0-|
A |-3-3-3-3-3-3-3-3-|------0--3-3---|
D |-3-3-3-3-3-3-3-3-|---------------|
Your advice

      A5       F5       D5          A5        F5    D         D7
G |-----2-----------------------------2-----------------------------| (x4)
D |---2--2------3--------0--0-------2--2-------3------/4-4--4-----0-|
A |-0---------3--3-----0--0--0----0----------3--3----------0--3-3---|
D |---------3--------0---------------------3--------0---------------|
Meat-eating orchids forgive no one just yet
Cut myself angel's hair and baby's breath
Broken hymen of your highness I'm left black
Throw down your umbilical noose so I can climb right back

Refrão

           F5                  D7
D |-3-3-3-3-3-3-3-3-|-/4-4--4-----0-|
A |-3-3-3-3-3-3-3-3-|------0--3-3---|
D |-3-3-3-3-3-3-3-3-|---------------|
Your advice

Solo:
B|---8b/7----6b/5--|---5b--3-1-0--| (x2)
G|-----------------|--------------|
D|-7-------5-------|-3------------|

      A5
G|--2----2--|
D|--2----2--|
A|--0----0--|

Repete: Primeira estrofe, Refrão

           F5           |
D |-3-3-3-3-3-3-3-3-|   |
A |-3-3-3-3-3-3-3-3-|   | x3
D |-3-3-3-3-3-3-3-3-|   |
Your advice             |

D |-4--4--4--4-----(4)--|
A |-------------3--(3)--|







Versão 2:
---------

Introdução:
    C#      E         G#           C#      E         G#
e: -------------------------------|-------------------------------------|
B: -------------------------------|-------------------------------------|
G: ----------------------6---6----|---------------------6-6-4-6---4-6---|
D: -----6-------2----------6---6--|-----6-------2---------------4-------|
A: ---6---6---2---2---4-----------|---6---6---2---2---4-----------------|
E: -4-------0---------------------|-4-------0---------------------------|
   
Verso 1 (x4):
    C#      E        G#                C#      E       G#
e: ----------------------------------|----------------------------------|
B: ----------------------------------|----------------------------------|
G: ----------------------6-------6---|--------------------6-6-6-6-4-4-6-|
D: -----6-------2------6---6---6---6-|-----6-------2-----6--------------|
A: ---6---6---2---2--4-------4-------|---6---6---2---2--4---------------|
E: -4-------0------------------------|-4-------0------------------------|
She eyes me like a pisces when I am weak 
I've been locked inside your Heart-Shaped box for weeks 
I was drawn into your magnet tar pit trap 
I wish I could eat your cancer when you turn back   

Refrão (x3):							   Ponte (x2):
    C#   E     G#  B/G# G#    C#   E     G#  B/G# G#      E      G#
e: -------------------------|-------------------------| |---------------|
B: -------------------------|-------------------------| |---------------|
G: -----------6666--44--6---|-----------6666--44--6---| |--------6------|
D: -66---22---6666--44--6---|-66---22---6666--44--6---| |-2------6 (x8)-|
A: -66---22---4444--44--4---|-66---22---4444--44--4---| |-2 (x8)-4------|
E: -44---00-----------------|-44---00-----------------| |-0-------------|
Hey! Wait! I've got a new complaint!                      Your advice
Forever in debt to your priceless advice
Hate! Haight! I've got a new complaint! 
Forever in debt to your priceless advice 
Hey! Wait! I've got a new complaint! 
Forever in debt to your priceless advice

Verso 2 (x4):
    C#      E        G#                C#      E        G#
e: ----------------------------------|----------------------------------|
B: ----------------------------------|----------------------------------|
G: ----------------------6-------6---|--------------------6-6-6-6-4-4-6-|
D: -----6-------2------6---6---6---6-|-----6-------2-----6--------------|
A: ---6---6---2---2--4-------4-------|---6---6---2---2--4---------------|
E: -4-------0------------------------|-4-------0------------------------|
Meat-eating orchids forgive no one just yet 
Cut myself on angel's hair and baby's breath 
Broken hymen of your highness I'm left black 
Throw down your umbilical noose so I can climb right back.






Refrão (x3):							   Ponte (x2):
    C#   E     G#  B/G# G#    C#   E     G#  B/G# G#      E      G#
e: -------------------------|-------------------------| |---------------|
B: -------------------------|-------------------------| |---------------|
G: -----------6666--44--6---|-----------6666--44--6---| |--------6------|
D: -66---22---6666--44--6---|-66---22---6666--44--6---| |-2------6 (x8)-|
A: -66---22---4444--44--4---|-66---22---4444--44--4---| |-2 (x8)-4------|
E: -44---00-----------------|-44---00-----------------| |-0-------------|
Hey! Wait! I've got a new complaint!                      Your advice
Forever in debt to your priceless advice
Hate! Haight! I've got a new complaint! 
Forever in debt to your priceless advice 
Hey! Wait! I've got a new complaint! 
Forever in debt to your priceless advice

Solo:
e: ----------------------------|---------------------------| Este solo é 
B: ---7#---5#---5#--4-2-0------|--7#---5#---5#--4-2-0------| aproximado
G: -----------------------3-1--|----------------------3-1--| pois tirei-o
D: -6----6----6----------------|-----6----6----------------| num violão.
A: ----------------------------|---------------------------| O sinal # é
E: ----------------------------|---------------------------| um Full Bend

Verso 1 (x4):
    C#      E        G#                C#      E       G#
e: ----------------------------------|----------------------------------|
B: ----------------------------------|----------------------------------|
G: ----------------------6-------6---|--------------------6-6-6-6-4-4-6-|
D: -----6-------2------6---6---6---6-|-----6-------2-----6--------------|
A: ---6---6---2---2--4-------4-------|---6---6---2---2--4---------------|
E: -4-------0------------------------|-4-------0------------------------|
She eyes me like a pisces when I am weak 
I've been locked inside your Heart-Shaped box for weeks 
I was drawn into your magnet tar pit trap 
I wish I could eat your cancer when you turn back

Refrão (x3):							   Ponte (x4):
    C#   E     G#  B/G# G#    C#   E     G#  B/G# G#      E      G#
e: -------------------------|-------------------------| |---------------|
B: -------------------------|-------------------------| |---------------|
G: -----------6666--44--6---|-----------6666--44--6---| |--------6------|
D: -66---22---6666--44--6---|-66---22---6666--44--6---| |-2------6 (x8)-|
A: -66---22---4444--44--4---|-66---22---4444--44--4---| |-2 (x8)-4------|
E: -44---00-----------------|-44---00-----------------| |-0-------------|
Hey! Wait! I've got a new complaint!                      Your advice
Forever in debt to your priceless advice
Hate! Haight! I've got a new complaint! 
Forever in debt to your priceless advice 
Hey! Wait! I've got a new complaint! 
Forever in debt to your priceless advice




Quer fazer uma correção nesta cifra?







    Comentários (0) Postar um Comentário

    Nenhum comentário encontrado. Seja o primeiro!