Cifra da música: Scentless Apprentice - Nirvana

Esse cifra de Nirvana já foi acessado por 845 pessoas.

Comente

A música Scentless Apprentice fez muito sucesso quando foi gravada por Nirvana. Quer conhecer a letra dela? Veja a letra de Scentless Apprentice e cante.

Veja também o vídeo da música tocada.


tuning: drop D [DADGBe]

intro (this is also played before each verse and as the chorus, i believe)
.."Go away! .. Get away! .."
e|6-6-8-8-9-10-10-10/15-------------------------------------------------
B|-5-5-8-8-9--9--9------------------------------------------------------
G|----------------------------------------------------------------------
D|----------------------------------------------------------------------
A|----------------------------------------------------------------------
D|----------------------------------------------------------------------

verse (this is played after the intro and after each line of the verse;
it follows the drums)
.."He was born a scentless apprentice.."
e|----------------------------------------------------------------------
B|----------------------------------------------------------------------
G|----------------------------------------------------------------------
D|----------------------------------------------------------------------
A|1-1-0-0-1-1-0-0----------------------------------
D|0-0-0-0-0-0-0-0-----------------------------------

verse (this is played during each line)
.."Like most babies smell like butter.."
e|0-0-0-----------------------------------------------------------------
B|-6-6-6(grad. bend up, grad. bend down)--------------------------------
G|----------------------------------------------------------------------
D|----------------------------------------------------------------------
A|----------------------------------------------------------------------
D|----------------------------------------------------------------------

pre-chorus
e|-----------------------------------------------------------------------------
B|-----------------------------------------------------------------------------
G|-----------------------------------------------------------------------------
D|-----------------------------------------------------------------------------
A|1-1~/3-3~/5-5~/6-6~/8-8~/10-10~/13-13-13~/10~~-------------------------------
D|-----------------------------------------------------------------------------



Correção: Mestre Giuliano Motta ([email protected])


Quer fazer uma correção nesta cifra?







    Comentários (0) Postar um Comentário

    Nenhum comentário encontrado. Seja o primeiro!