Cifra da música: Sad - Nirvana

Esse cifra de Nirvana já foi acessado por 504 pessoas.

Comente

A música Sad fez muito sucesso quando foi gravada por Nirvana. Quer conhecer as demais músicas? Conheça as letras das músicas gravadas por Nirvana e aproveite.

Veja também o vídeo da música tocada.


Essa é a versão acustica de Verse Chorus Verse tem a mesma letra
 só q é cantada bem mais lenta e com esses dedilhados ...



|-----------------------------------------------------------------------|
|-----------------------------------------------------------------------|
|-----4-----4------------4---------------------------------0-------2----|
|---4-----4-----4------4-----------2-------4-----4-------0-------2------|
|-2-----2-----2------------------2---0---4-----4-----4---------0--------|
|-------------------3------3/5-0-------2-----2-----2---3-----3----------|

repete até entrar o verso principal.


|---------------------------------------------------|
|---------------------------------------------------|
|-----4-----4---------0-----------------------------|
|---4-----4-----4---0---0-----2--------4-----4------|
|-2-----2-----2-------------2---0----4-----4-----4--|
|-----------------3-------0--------2-----2-----2----|
                                                                                   F#
|------------------------------------------------------------------------------------|
|------------------------------------------------------------------------------------|
|-----0--------------------------------0-------------------------------3-----3-----3-|
|---0---0------2-------4-----4-------0---0-----2-------4-----4-------3-----3----3--4-|
|------------2---0---4-----4-----4-----------2---0---4-----4-----4-----------------4-|
|-3--------0-------2-----2-----2---3-------0-------2-----2-----2---0-----0-----0---2-|









Quer fazer uma correção nesta cifra?







    Comentários (0) Postar um Comentário

    Nenhum comentário encontrado. Seja o primeiro!