Cifra da música: Return Of The Rat - Nirvana

Esse cifra de Nirvana já foi acessado por 581 pessoas.

Comente

A música Return Of The Rat fez muito sucesso quando foi gravada por Nirvana. Quer conhecer a letra dela? Veja a letra de Return Of The Rat e cante.

Veja também o vídeo da música tocada.


Intro/Verse:

    G#      B       F#
e|----------------------------------|
B|---------------------------------o|
G|----------4-4-4-X-----------------| [4x intro
D|--6-6-6-X-4-4-4-X-4-4-4-4-4-4-4---| [1x p/ cada linha
A|--6-6-6-X-2-2-2-X-4-4-4-4-4-4-4--o| [   do verso (4x)
E|--4-4-4-X---------2-2-2-2-2-2-2---|

Chorus:

    Bb   /B    Bb   /B    Bb   /B  G#
e|------------------------------------------|
B|------------------------------------------|
G|------------------------------------------|
D|--8-8-8/9--X-8-8-8/9--X-8-8-8/9--6-6-6-6--|
A|--8-8-8/9--X-8-8-8/9--X-8-8-8/9--6-6-6-6--|
E|--6-6-6/7--X-6-6-6/7--X-6-6-6/7--4-4-4-4--|
 
  *2
    Bb   /B    Bb   /B    Bb   /B  G#       F#       B        C#
e|--------------------------------------------------------------------|
B|--------------------------------------------------------------------|
G|---------------------------------------------------4-4-4-4--6-6-6-6-|
D|--8-8-8/9--X-8-8-8/9--X-8-8-8/9--6-6-6-6--4-4-4-4--4-4-4-4--6-6-6-6-|
A|--8-8-8/9--X-8-8-8/9--X-8-8-8/9--6-6-6-6--4-4-4-4--2-2-2-2--4-4-4-4-|
E|--6-6-6/7--X-6-6-6/7--X-6-6-6/7--4-4-4-4--2-2-2-2-------------------|


SOLO:

e|------------------------------------
B|------------------------------------
G|------------------------------------
D|-4/6~~~~~~~~~~~~~~~~~~~~~~~~~~~~~~~-
A|------------------------------------
E|------------------------------------

|------------------------------------------------------------------
|/12-11-11-12-12-12-12-12-11-9-9-9/11-12-11-12-12-12-11-12-11-9-9-9
|------------------------------------------------------------------
|------------------------------------------------------------------
|------------------------------------------------------------------
|------------------------------------------------------------------

|------------------------------|                |-----------------|
|-/14-12-----------------------|                |-----------------|
|--------12~~~-11-11^12^11-----|  |-6---5-----------|
|------------------------------|                |-------6---5-4-3-|
|------------------------------|                |-----------------|


Return Of The Rat (Greg Sage and the Wipers cover; Wipers tribute)
You better watch out
You better beware
They're coming from all sides of the country
You better beware
Return of the rat 3x
No, no, no, no!
They better confess
Well, they better confess
I know, I seen them do it
They better confess




Quer fazer uma correção nesta cifra?







    Comentários (0) Postar um Comentário

    Nenhum comentário encontrado. Seja o primeiro!