Cifra da música: Opinion - Nirvana

Esse cifra de Nirvana já foi acessado por 508 pessoas.

Comente

A música Opinion fez muito sucesso quando foi gravada por Nirvana. Quer conhecer a letra dela? Veja a letra de Opinion e cante.

Veja também o vídeo da música tocada.


Essa musica se chama Opinion e foi gravada numa demo pelo Nirvana, Originalmente composta pelo TAD.

INICIO:

e |------------------------------------|
B |------------------------------------|
G |--4-4-4-----------7-7-7-------------|
D |--4-4-4---5-5-5---7-7-7---4-4-4-----|
A |--2-2-2---5-5-5---5-5-5---4-4-4-----|
E |----------3-3-3-----------2-2-2-----|


A versão Heavy na parte dos versos ele abafa esses acordes e no refrão fica normal

Solo:

|-----------------------------------------------------|
|-----------------------------------------3-5-5-3-5-5-|
|--3--4-4--3--4-4-4-4------3--4-4--3-4-4--------------|
|-----------------------------------------------------|
|-----------------------------------------------------|
|-----------------------------------------------------|

|-------------------------------------------|
|---------3-5-5-3---------3-5/7-5-3-5-3/5---|
|-3-4-4-4---------3-4-4-4-----------------4-|
|-------------------------------------------|
|-------------------------------------------|
|-------------------------------------------|



A MUSICA BASEIA NAQUELES ACORDES (B5 / G5 / D5 / F#5 )


Opinion
(Tad)

Congratulations you have won
It's a years subscription of bad puns.
And it makes your story our concern
And you set it up for returns (Alt: You said it all and you glory burns)

My opinions. Mmm. Mmm. (x4)

And there seems to be a problem here.
Your state of emotion seems to clear.
You rise and fall like wall street stock
And you had an affect on our happy talk.

Our opinions. Mmm. Mmm. (x2)
My opinions. Mmm. Mmm. (x2)

Congratulations you have won
It's a years subscription of bad puns.
And it makes your story our concern
And you set it up for returns (Alt: You said it all and you glory burns)

Our opinions. Mmm. Mmm.
Your opinions. Mmm. Mmm. (x3)
My opinions. Mmm. Mmm.
  

____________________________________________________________


Quer fazer uma correção nesta cifra?







    Comentários (0) Postar um Comentário

    Nenhum comentário encontrado. Seja o primeiro!