Cifra da música: Love Buzz - Nirvana

Esse cifra de Nirvana já foi acessado por 703 pessoas.

Comente

A música Love Buzz fez muito sucesso quando foi gravada por Nirvana. Quer conhecer a letra dela? Veja a letra de Love Buzz e cante.

Veja também o vídeo da música tocada.


Versão 1
-======-

Tuning:Standard (tuned UP ½step)	

NOTE:Before guitar really enters on the album, there's a quiet noise made by tapping guitar neck.

INTRO

RIFF 1        RIFF 2			RIFF 3		                 RIFF 4
  4 times        4 times		4 times		    3 times

A5
---------||---0-0-5p3p0----------||----------------||---0-0-5p3p0-----------|-------------||
---------||------------5p3p0-----||----------------||------------5p3p0------|-------------||
-2-------||-2---------------5p2p0||----------6h7p6-||-2---------------5p2p0-|-2-----------||
-2-------||-2--------------------||-7--5-7-8-------||-2---------------------|-2-----------||
-0-------||-0--------------------||----------------||-0---------------------|-0-----------||
---------||----------------------||----------------||-----------------------|-------/19b20||

CHORUS 
       3 times
A5	      G5	A5
--------------------||--------------------|
--------------------||--------------------|
-2-----------0--0---||-2------------------|
-2-----------0--0---||-2------------------|
-0------------------||-0------------------|
-------------3--3---||--------------------|

after 1st chorus play RIFF 2 and RIFF 3 and then go to SOLO.


SOLO
--0---------------------|--------------------------|
--8--8--7--7--------5-7-|-7b8==8r7--7--7---5--5----|
------------------------|-----------------------7--|
------------------------|--------------------------|
------------------------|--------------------------|
------------------------|--------------------------|

-------------------------|---------------------------|
-------------------------|---------------------------|
7--5---7b9-7b9--7b9------|-7b9r7p5p0------5-7-7b9r7--|
-------------------------|------------7-5p0----------|
-------------------------|---------------------------|
-------------------------|---------------------------|

---------------|-----------------|
---------------|-----------------|
7p5p0--2-2-----|-----------------|
----------2-2-0|--2-2-2-2-2-0----|
---------------|-------------0---|
---------------|-----------------|

---------------|---------------|
---------------|---------------|
-----------2-4-|4b5==5==5r4-2--|
---0-2-2-4-----|---------------|
0-2------------|---------------|
---------------|---------------|

after solo play RIFF 4 and then play 2nd verse and chorus.

After 2nd chorus play RIFF 4 and turn down volume and after few bars of guitar silence start to 
make noise. I don't think it's necessary to tab it, because it's just feedback and string bending
(on Bleach other guitar with wah); Kurt never did it twice similarly.

So when the noise section is over, play RIFF 2 and RIFF 3 2 times and then RIFF 1 and:
e-----------------|----------------|---|
b-----------------|----------------|---|
g-2-2-2-2-2-2-2-2-|2-2-2-2-2-2-2-2-|-2-|
d-2-2-2-2-2-2-2-2-|2-2-2-2-2-2-2-2-|-2-|
a-0-0-0-0-0-0-0-0-|0-0-0-0-0-0-0-0-|-0-|
e-----------------|----------------|---|
 PM________________|










Versão 2
-======-

Intro
   
   B A B C
e|-----------------------------------------------------------------|
B|-----------------------------------------------------------------|
G|-----------------------------------------------------------------|
D|-.--------1h2p1--.-------1h2p1----------1h2p1-----------1--------|
A|-2-0-2-3---------2-0-2-3--------2-0-2-3---------2-0-2-3----------|
E|-----------------------------------------------------------------|


  Riff 1
    
    B     B                B
e|--------------7p6p5----------7p6p5-------------------------------|
B|------------7-------7-5-----7------7-5---------------------------|
G|--4-----4----------------4---------------------------------------|
D|--4-----4----------------4---------------------------------------|
A|--2-----2----------------2---------------------------------------|
E|-----------------------------------------------------------------|
  
   Riff 2
 (something like this..)

e|-----------------------------------------------------------------|
B|-----------------------------------------------------------------|
G|-4-2-4-5-8-9----4-2-4-5-8-9----4---------------------------------|
D|-4-2-4-5-8-9----4-2-4-5-8-9----4---------------------------------|
A|-2-0-2-3-6-7----2-0-2-3-6-7----2---------------------------------|
E|-----------------------------------------------------------------|

                Feel free to post to usenet etc..
                 Niall



Love Buzz

Would you believe me when I tell you
You are the queen of my heart
Please don't deceive me when I hurtyou
Just ain't the way it seems

Can you feel my love buzz?(4x)

__________________________________________________________


Quer fazer uma correção nesta cifra?







    Comentários (0) Postar um Comentário

    Nenhum comentário encontrado. Seja o primeiro!