Cifra da música: Lounge Act - Nirvana

Esse cifra de Nirvana já foi acessado por 942 pessoas.

Comente

A música Lounge Act fez muito sucesso quando foi gravada por Nirvana. Quer conhecer a letra dela? Veja a letra de Lounge Act e cante.

Veja também o vídeo da música tocada.


Voicings.-
         B(x244xx)   
         G(355xxx)
         C(x355xx)
         A(x022xx)
         E(022xxx)
         D(x0023X)

  Bass intro

 |---------------------------------------------------------------------------|
 |---------------------------------------------------------------------------|
 |---------------------------------------------------------------------------|
 |---------------------------------------------------------------------------|
 |---------------------------------------------------------------------------|
 |-1/5--8--12--0--1--0--1/5--8--7--6--5--1/5--8--7--0--1--0--1/5--8--7--6--5-|

  Intro.-
  riff1
       B                       G                 C
 |-----------------------------------------------------------------|
 |o---------------------------------------------------------------o|
 |-----4----X---4--4----4------------------------5----5---5----0---|
 |-----4----X---4--4----4--0---5-----5-----0-----5----5---5----0---|  X2
 |o----2----X---2--2----2--0---5-----5-----0-----3----3---3----0--o|
 |-------------------------0---3-----3-----0-----------------------|

  riff1 (c/dist)
  Thruth, covered in security,
  I can't let you smoother me.
  I'd like to but it wouldn't work,
  trading off and taking turns.        
  I don't regret a thing
 
  Refrão  (c/dist)
  A           E          A
  And I've got  this friend, 
         D    G            E
  you see who makes me feel
        A          D     G              E
  and I wanted more than I could steal.
          A          D      G            E
  I'll arrest myself, I'll wear a shield.
          A         D      G
  I'll go out my way to prove I still
  
  Smell her on you
 |-------------------------------------------|----------------------------|
 |o-2---------------------------------------o|----------------------------|
 |--2----------------------------------------|----------------------------|
 |--2-------------------0-------5----5-------|----0-----------------------|
 |o-0---------------3-----------5----5------o|----0-----------------------|
 |------------4-----------------3----3-------|----0-----------------------|
                                           X2

 Riff1 (c/dist)
  Don't tell me what I want to hear.
  Afraidof never knowing fear,
  experience anything you need.
  I'll keep fighting jelousy.
  Until it's fucking gone

  Refrão

  Toque o riff 1 2x

  
    A           E          A
  And I've got  this friend, 
         D    G            E
  you see who makes me feel
        A          D     G              E
  and I wanted more than I could steal.
          A          D      G            E
  I'll arrest myself, I'll wear a shield.
          A         D   G                E
  I'll go out my way to make you a deal.
            A      D   G                E
  We've made a pact to learn from who - 
         A            D    G      E
  ever we want without new rules.
              A              D    G        E
  We'll save what's lost and what we grew.
             A            D   G
  They'll go out their way to prove they

                                                    Dive w/bar
 |-------------------------------------------|----------------------------|
 |o-2---------------------------------------o|----2-----------------------|
 |--2----------------------------------------|----2-----------------------|
 |--2-------------------0-------5----5-------|----2-----------------------|
 |o-0---------------3-----------5----5------o|----0-----------------------|
 |------------4-----------------3----3-------|----------------------------|
                                          X4


______________________________________________________
Correção: Fernando Tanji ([email protected])
Correção: Raphael Bianchi ([email protected])


Quer fazer uma correção nesta cifra?







    Comentários (0) Postar um Comentário

    Nenhum comentário encontrado. Seja o primeiro!