Cifra da música: Lake Of Fire (featuring Curt Kirkwood) - Nirvana

Esse cifra de Nirvana já foi acessado por 656 pessoas.

Comente

A música Lake Of Fire (featuring Curt Kirkwood) fez muito sucesso quando foi gravada por Nirvana. Quer conhecer as demais músicas? Conheça as letras das músicas gravadas por Nirvana e aproveite.

Veja também o vídeo da música tocada.


Versão 1:
---------

Voicings:

Gm    - 3553xx
G5    - 355xxx
F5    - 133xxx
Bb5   - x133xx
Bb    - x13331
C5    - x355xx
Dm    - xx0231
Dsus2 - xx0230
A     - x02220

Main Riff

  Gm     G5F5    Bb5   Gm          C5        Bb5
E-------------------------------------------------------
B-----------------------------------5b6r5b6r5-3---------
G-----------------------------------5b6r5b6r5-3---------
D-------------------------------------------------------
A-------------------------------------------------------
E-------------------------------------------------------

  Gm     G5F5   Bb5             C5          F5    G5
E-------------------------------------------------------
B-------------------------------------------------------
G---------------------------------5--5-----5------------
D---------------------------------5--5-----5--3--3--5---
A---------------------------------3--3-----3--3--3--5---
E---------------------------------------------1--1--3---

  Gm              F5      G5      Gm                        F5       G5
E------------------------------|-----------------------------------------
B------------------------------|----11~-11~-11~-11~-11~-11~--6~--6~/8~--
G------------------------------|-/10--10~-10~-10~-10~-10~--5~--5~--/7~--
D---------------------3--------|-----------------------------------------
A-5-5-5-5-5-5-5-5-3---1---5----|-----------------------------------------
E-3-3-3-3-3-3-3-3-1-------3----|-----------------------------------------


Gm                 F            Bb
Where do bad folks go when they die?
     Gm                           C5     Bb
They don't go to heaven where the angels fly
        Gm                  F        Bb
They go down to the lake of fire and fry
      C                      F         Gm     Gm  F   G   F   G5
Won't see 'em again till the fourth of july

Dm                Bb
I knew a lady who came from duluth
Dm                          A
She got bit by a dog with a rabid tooth
Dm                           Bb
She went to her grave just a little too soon
        C                        Dm     Dsus2
And she flew away howling on the yellow moon

[Repeat Chorus]

Now the people cry and the people moan
And they look for a dry place to call their home
And try to find some place to rest their bones
While the angels and the devils
Fight to claim them for their own

[Repeat Chorus] Gm  F  G5 Gm  F  G5

SOLO
E------3---------3---------------------------------------
B--2-3---3--6b7------6-----------------------------------
G----------------------5-3-------------------------------
D--------------------------5-3----------------------3-5--
A------------------------------5-4-3----------3-4-5------
E------------------------------------6-3----6------------

E--------------------------------------------------------
B--3b4---------------6~----6~----------------------------
G--3b4-------(0)-5/7----7~----75--3---------------------
D-------5----------------------------5-------0-3---3-----
A-----------------------------------------/5-----5---5---
E--------------------------------------------------------

E-------------------------------3------------------------
B--------------------6~------/3---3-7-3------------------
G----------------5/7----7--------------3-5--------------
D-------------------------------------------3---5--------
A--3-----------------------------------------------------
E----6-3-3-3----------------------------------3----------

E--------------------------------------------------------
B--3b4------3b4-----3b4----------------------------------
G--3b4------3b4-----3b4----------------------------------
D------5-5------5-------5-3------------------------3-----
A---------------------------5-4-3------------3-4-5-------
E---------------------------------6-3----3-6-------------

E----------------------
B----------------------
G------(3)-----(4)-----
D--3h5-----(3)-----5---
A----------------------
E----------------------



Versão 2:
---------

Introdução:

Guitarra 1
     G       F   Bb   G          C    Bb
G|-3--3----------3--3--3--------5--5--5-3--|
D|-5--5--53--3--3--5--5--x-x-x-5--5--5-3--|
A|-5--5--53--3--1--5--5--x-x-x-3--3--3-1--|
E|-3--3--31--1-----3--3--x-x-x------------|

Guitarra 2
B|------------------------------5-(5)-5-3--|
G|------------------------------5-(5)-5-3--|

Guitarra 1
     G       F   Bb   G          C    Bb     G       F   Bb   G          C    Bb
G|-3--3----------3--3--3--------5--5--5-3--3--3----------3--3--3--------5--5--5-3-------|
D|-5--5--53--3--3--5--5--x-x-x-5--5--5-3--5--5--53--3--3--5--5--x-x-x-5--5--5-3-------|
A|-5--5--53--3--1--5--5--x-x-x-3--3--3-1--5--5--53--3--1--5--5--x-x-x-3--3--3-1-------|
E|-3--3--31--1-----3--3--x-x-x------------3--3--31--1-----3--3--x-x-x-----------------|

Guitarra 2
B|----------------------------------------------------11--11--11--11--11--11--6---6/8~-|
G|-------------------------------------------------/10--10--10--10--10--10--5---5--/7~-|

Refrão:
(melodia da Introdução)
Where do bad folks go when they die? / They don't go to heaven where the angels fly / They go down to the lake of fire and fry / Won't see 'em again till the fourth of July

Dm                Bb
I knew a lady who came from Duluth
Dm                          A
She got bit by a dog with a rabid tooth
Dm                           Bb
She went to her grave just a little too soon
        C                        Dm     Dsus2
And she flew away howling on the yellow moon

Refrão

Dm                 Bb
Now the people cry and the people moan
Dm                            A
And they look for a dry place to call their home
Dm                         Bb
And try to find some place to rest their bones
          C                                            Dm     Dsus2
While the angels and the devils fight to claim them for their own

Refrão

Solo:

B|----11--11--11--11--11--11--6---6/8~-|
G|-/10--10--10--10--10--10--5---5--/7~-|

E|------3---------3---------------------------------------|
B|--2-3---3--6b7------6-----------------------------------|
G|----------------------5-3-------------------------------|
D|--------------------------5-3----------------------3-5--|
A|------------------------------5-4-3----------3-4-5------|
E|------------------------------------6-3----6------------|

B|--3b4---------------6~----6~----------------------------|
G|--3b4-------(0)-5/7----7~----75--3---------------------|
D|-------5----------------------------5-------0-3---3-----|
A|-----------------------------------------/5-----5---5---|

E|-------------------------------3------------------------|
B|--------------------6~------/3---3-7-3------------------|
G|----------------5/7----7--------------3-5--------------|
D|-------------------------------------------3---5--------|
A|--3-----------------------------------------------------|
E|----6-3-3-3----------------------------------3----------|

B|--3b4------3b4-----3b4----------------------------------|
G|--3b4------3b4-----3b4----------------------------------|
D|------5-5------5-------5-3------------------------3-----|
A|---------------------------5-4-3------------3-4-5-------|
E|---------------------------------6-3----3-6-------------|

G------(3)-----(4)-----|
D--3h5-----(3)-----5---|
A----------------------|
E----------------------|



Quer fazer uma correção nesta cifra?







    Comentários (0) Postar um Comentário

    Nenhum comentário encontrado. Seja o primeiro!