Cifra da música: Frances Farmer Will Have Her Revenge On Seattle - Nirvana

Esse cifra de Nirvana já foi acessado por 792 pessoas.

Comente

A música Frances Farmer Will Have Her Revenge On Seattle fez muito sucesso quando foi gravada por Nirvana. Quer conhecer a letra dela? Veja a letra de Frances Farmer Will Have Her Revenge On Seattle e cante.

Veja também o vídeo da música tocada.


Tune down 1/2 step
  Intro
  Gtr.2 
  ------------------------------------------------
  ------------------------------------------------
  ------------------------------------------------
  ------------------------------------------------
  ------------------------6-2--------------------
  ------------------------------------------------
 
  PM----------------------------------------------
  Gtr.1  rhy.fig. 1 (only gtr.1)
  ------------------------------------------------
  ------------------------------------------------
  ------------------------------------------------
  ------------------------------------------------
  -/6--6--6--6--6--6--6--6----2--2--2-------------
  -/4--4--4--4--4--4--4--4----0--0--0--0----------
 
  Gtr.2
  ------------------------------------------------
  ------------------------------------------------
  ------------------------------------------------
  ------------------------------------------------
  ------------------------------------------------
  -----------4-2---------------------------------
  
  PM----------------------------------------------
  Gtr.1
  ------------------------------------------------
  ------------------------------------------------
  ------------------------------------------------
  ------------------------------------------------
  -/5--5--5--5----2--2--2-----/5--5--5------------
  -/3--3--3--3----0--0--0--0--/3--3--3--0---------
  
 
  Gtr.2
  ------------------------------------------------
  ------------------------------------------------
  ------------------------------------------------
  ------------------------------------------------
  ------------------------6-2--------------------
  ------------------------------------------------
  
  PM----------------------------------------------
  Gtr.1
  ------------------------------------------------
  ------------------------------------------------
  ------------------------------------------------
  ------------------------------------------------
  -/6--6--6--6--6--6--6--6----2--2--2-------------
  -/4--4--4--4--4--4--4--4----0--0--0--0----------
  
  Gtr.2
  ------------------------------------------------
  ------------------------------------------------
  ------------------------------------------------
  ------------------------------------------------
  -----------5-2---------------------------------
  ------------------------------------------------
  
  PM------------------------]                     
  Gtr.1
  ------------------------------------------------
  ------------------------------------------------
  ------------------------------------------------
  ------------------------------------------------
  -/5--5--5--5----2--2--2-----/5--5--5------------
  -/3--3--3--3----0--0--0--0--/3--3--3--0---------
  
  
  w/distortion
  Gtrs. 1 & 2
  ------------------------------------------------
  ------------------------------------------------
  --4---4----4--4----4--4------4--4---------------
  --4---4----4--4----4--4------4--4---------------
  --2---2----2--2----2--2------2--2---------------
  ------------------------------------------------
                               
                               (end of rhy.fig. 1)
  ------------------------------------------------
  ------------------------------------------------
  --4-----4--4------4---4-------------------------
  --4-----4--4------4---4-------------------------
  --2-----2--2------2---2---4----4----5/----------
  --------------------------2----2----3/----------

  w/rhy.fig.1 
  It's so relieving 
  to know that you're leaving
  as soon as you get paid.

  It's so relaxing 
  to hear that you're asking
  where ever you get your way
                    

  Fill A  
  PM----------]         PM-------]
  Gtr.2            Harm.            Harm.
  ------------------------------------------------
  ------------------------------------------------
  ------------------------------------------------
  -------------------6----------------6-----------
  --5--5--6--6-----x-----6--6--6----x-------------
  --3--3--4--4---x-------4--4--4------------------
                
ake/             
ake/

  PM------]      PM
  ------------------------------------------------
  ----------4-------------------------------------
  -------------------6--------------0-------------
  ----------------------------------0-------------
  --5---5--------5---------x---5----0-------------
  --3---3--------3---------x---3------------------

  ------------------------------------------------
  ------------------------------------------------
  --4---4----4--4----4--4------4--4---------------
  --4---4----4--4----4--4------4--4---------------
  --2---2----2--2----2--2------2--2---------------
  ------------------------------------------------
                               
        
  ------------------------------------------------
  ------------------------------------------------
  --4-----4--4------4---4-------------------------
  --4-----4--4------4---4-------------------------
  --2-----2--2------2---2---4----4----5/----------
  --------------------------2----2----3/----------

  w/Fill A   &  rhy.fig.1 (w/dist.)
  It's so soothing 
  to know that you'll sue me,
  this is starting to sound the same.
  
  rhy.fig. 2
  ------------------------------------------------
  ------------------------------------------------
  --6---6----6--6------6----/9-----9----9--------
  --6---6----6--6------6----/9-----9----9--------
  --4---4----6--6-----------/7-----7----7--------
  --4---4----4--4---4-------/7----------7--------

  ------------------------------------------------
  ------------------------------------------------
  --7---7-------4---4---4---4--4---4--4-----------
  --7---7---0---4---4---4---4--4---4--4--4--------
  --5---5---0---2---2---2---2--2---2--2--2--------
  --5---5-------2---2--------------2-----2--------

  ------------------------------------------------
  ------------------------------------------------
  --4---4--4--4--4--4--5--------------------------
  --4---4--4--4--4--4--5--------------------------
  --2---2--2--2--2--2--3--------------------------
  --2---2--2--2--2--2--3--------------------------


Quer fazer uma correção nesta cifra?







    Comentários (0) Postar um Comentário

    Nenhum comentário encontrado. Seja o primeiro!