Cifra da música: Dive - Nirvana

Esse cifra de Nirvana já foi acessado por 778 pessoas.

Comente

A música Dive fez muito sucesso quando foi gravada por Nirvana. Quer conhecer a letra dela? Veja a letra de Dive e cante.

Veja também o vídeo da música tocada.


INTRO
E
|-----|
|-----|
|-----|
|-----|
|-0---|
|-0---|

  F#              E     F#              E
|---------------------------------------------|
|---------------------------------------------|
|---------------------------------------------|
|-----------------9-9-9-----------------9-9-9-|
|-4---4-4---4-----7-7-7-4---4-4---4-----7-7-7-|
|-2-0-2-2-0-2-0-0-------2-0-2-2-0-2-0-0-------|

  F#              E     F#              E
|--------------------------------------------|
|--------------------------------------------|
|--------------------------------------------|
|-----------------9-9-9----------------------|
|-4---4-4---4-----7-7-7-4---4-4---4-----/17~-|
|-2-0-2-2-0-2-0-0-------2-0-2-2-0-2-0-0------|

VERSE
   F#  E
|------------------------------|
|----------------3-3-3---------|
|------1---1-----1-1-1---------|
|------2---2-----2-2-2---------|
|--------2---2-2---------------|
|--2-2---0---0-0---------------|
Pick me pick me yeah
Get a long lost signal
While he said she said
You can be my hero
Pick me pick me yeah
You can be my baby

CHORUS
   B     C#    G     E
|-------------------------|
|-------------------------|
|-------------------------|
|--4---4-6---6------------|
|--2-x-2-4-x-4-5---5-2----|
|--------------3-x-3-0----|
  F#              E
|-----------------------|
|-----------------------|
|-----------------------|
|-----------------------|
|-4---4-4---4-----2-2---|
|-2-0-2-2-0-2-0-0-0-0---|
'dive , dive , dive , dive in me'


   F#  E
|------------------------------|
|----------------3-3-3---------|
|------1---1-----1-1-1---------|
|------2---2-----2-2-2---------|
|--------2---2-2---------------|
|--2-2---0---0-0---------------|
Kiss this, kiss that yeah
Live alone, lone single 
At least, at least, yeah
You could be my hero

Pick me, pick me yeah
Everyone is waiting
Hit me, hit me yeah
I'm real good at hating

CHORUS
   B     C#    G     E
|-------------------------|
|-------------------------|
|-------------------------|
|--4---4-6---6------------|
|--2-x-2-4-x-4-5---5-2----|
|--------------3-x-3-0----|

|-----------------------|
|-----------------------|
|-----------------------|
|-----------------------|
|-4---4-4---4-----2-2---|
|-2-0-2-2-0-2-0-0-0-0---|
'dive , dive , dive , dive in me'


   F#  E
|------------------------------|
|----------------3-3-3---------|
|------1---1-----1-1-1---------|
|------2---2-----2-2-2---------|
|--------2---2-2---------------|
|--2-2---0---0-0---------------|


Solo
|------------------------|
|------------------------|
|------------------------|
|-8-6-8-8-6-6p8-6--------|
|-----------------7-7----|
|------------------------|



Quer fazer uma correção nesta cifra?







    Comentários (0) Postar um Comentário

    Nenhum comentário encontrado. Seja o primeiro!